Song name
# A B C D E F G H I J K L M N O P Q R S T U V W X Y Z

Yeng Constantino - Pag-ibig chords

Highlighted       Show chord diagrams
Pagibig
(two steps higher)
Intro- A-C#m-D-Dm-Tab 1

Tab 1: intro, outro, chorus
|---------5-5-5-7-7-7-9-5--------|        |-----10-----9--7---5-----|
|-5-5----------------------------|        |-------------------------|
|--------------------------------|        |-------------------------|
|--------------------------------| (3x)   |-------------------------|
|--------------------------------|        |-------------------------|
|--------------------------------|        |-------------------------|

I.

Tab 2: stanza at last A
|--------------------------------|
|--------------------------------|              
|---5-5--------------------------|              
|---------6----------------------|  
|-------7------------------------|              
|--------------------------------|
              
(A[AM7]-C#m-D-A-tab 2) 2x
ang pagibig hindi parang cellphone
pag naluma, papalitan
Ang pagibig hindi parang damit
pag may bagong uso, papalitan

Refrain: (Bm-E---D-Dm-E)
Bm	     
Kung sabihin kong mahal kita
A          E-E7
Yun ay totoo sinta
D
Wag na wag kang magdududa
     Dm       E
hindi kita binobola
 
Chorus 1 (A-C#m-D-Dm- +[Tab 1])2x
Pang-habangbuhay ang pagibig ko sayo o sinta
Kahit na ika’y pumangit hindi kita ipagpapalit
Pang-Habangbuhay ang pagibg ko sayo o sinta
Kahit na ika’y makalbo
Hindi ako magbabago
(A-Tab 2-C#m-D-A)
Ahhh. Ahhh. Ahhhh. Ahhhh.

II.(A-C#m-D-A-Tab 2)
Ang pagibig hindi parang pagkain 
Pagpinagsawaan, papamigay na lang
(A-C#m-D-A + Tab 1)
Ang pagibig hindi parang pusa,
pag maingay, ililigaw na lang

Refrain
Bm	
Kung sabihin kong mahal kita
A           E
Yun ay totoo sinta
D
Wag na wag kang magdududa
     Dm       E
hindi kita binobola


Chorus 2-(A-C#m-D-Dm + Tab 1) 2x
Pang-habangbuhay ang pagibig ko sayo o sinta
Kahit na ika’y tumaba, hindi ako mangangaliwa
Pang-habangbuhay ang pagibig ko sayo o sinta
Kahit na magka-wrinkles ka
Iki-kiss pa rin kita ahh.
(A-Tab 2-C#m-D-A-Tab 2)
Ahhh.ahhh.ahhhh

Interlude- (A-C#m-D-Dm + Tab 1)
"Love is patient, love is kind. 
It does not envy, it does not boast, 
It is not proud. It is not rude, 
it is not self-seeking, 
It is not easily angered, 
it keeps no record of wrongs. 
Love does not delight in evil but rejoices with the truth. 
It always protects, 
always trusts, 
always hopes, 
always preserves.
Chorus 3: (A-C#m-D-Dm + Tab 1)
Panghabambuhay ang pagibgi kosayo sinta kahit na topakin ka iintindihin kita
Panghabambuhay ang pagibig sayo o sinta
Kahit na may kasalanan ka iiyak ako pero.. pptawarin kita
Ahhh ahhh ahhh ahhh


reuelmiguelperez@ymail.com-facebook
Tap to rate this tab
# A B C D E F G H I J K L M N O P Q R S T U V W X Y Z