Song name
# A B C D E F G H I J K L M N O P Q R S T U V W X Y Z

Yeng Constantino - Time In tab

Tabbed by: ZTR
E-add: trynotpro@yahoo.com
Please email for suggestions, thanks :) 


e|------------------|
B|--------7---------|
G|--7-7h9---9-------|
D|------------------|
A|------------------|
E|------------------|

 Guitar 1:
D-A-B-G
 guitar 2:
e|----------------------------------------|
B|---/10----------------------------------|
G|-------7-9-11--11-11-11--11-11-9-9------|  x2
D|-----------------------------------12---|
A|----------------------------------------|
E|----------------------------------------|
Tap to rate this tab
 
# A B C D E F G H I J K L M N O P Q R S T U V W X Y Z