Song name
# A B C D E F G H I J K L M N O P Q R S T U V W X Y Z

Yeng Constantino - Chinito chords

Highlighted       Show chord diagrams
chinito
by: Yeng Constantino
transcribed by edge17_m5
  

 EM7
Mapapansin mo ba
         C#m7
Kaya ang tulad ko
           F#m                 A       B
Kahit nasa sulok lang ng iyong mga mata
      EM7              C#m7
Mahuli mo kaya ang pagsulyap sa'yo
           F#m                 A       B
Kahit na hindi naman ako ang iyong kaharap, oh chinito..
G#m         C#m7     F#m            B7
Balang araw ay, malalaman mo rin


[Chorus:]
         AM7
At kung ikaw ay nakatawa
       G#m          C#m7
Ako pa ba ay nakikita
      F#m            G#m
Nalilimutan ko ang itsura ko
  DM7         E7
Kapag kausap  na ikaw
     AM7
Sana naman ako'y pakinggan
        G#m           C#m7
At nang ikaw ay malinawan
        F#m           G#m      A            B
Dahil nabihag mo ang aking paningin at damdamin
       A         G#m       G   F#m,F#m(break!)
Oh! Chinito.. Chinito..

(Repeat Chords)
Kung hindi inaantok
Kung hindi nasisilaw
Pwede bang malaman ko
May pag-asa pa kayang matatanaw
Bakit ba ang pungay ng bintana ng iyong mundo
Isang ngiti nalang sakin
Ay baon ko hanggang sa pag-uwi
oh chinito
Balang araw ay malalaman mo rin

[Chorus:]
At kung ikaw ay nakatawa
Ako pa ba ay nakikita
Nalilimutan ko ang itsura ko
Kapag kausap na ikaw
Sana naman ako'y pakinggan
At nang ikaw ay malinawan
Dahil nabihag mo ang aking paningin at damdamin
       A        G#m                        F#m          G#m  
Oh! Chinito.. Chinito..
e|------------|-----------|---------------------|------------|
B|-----9--7---|-----------|---------------------|------------|
G|--9-------9-|--11--8----|-------9--11--9-11sus|--11-9-8----|
D|------------|--------9--|--9-11---------------|------------|
A|------------|-----------|---------------------|------------|
E|------------|-----------|---------------------|------------|
      A         B
                     Sana naman ako'y pakinggan
e|--------------------|----------------------------------------|
B|--------------9-----|----------------------------------------|
G|--8-9--9--9p8-------|-----------------------------9--11--9-8-|
D|--------------------|------------------------9-11------------|
A|--------------------|----------------------------------------|
E|--------------------|----------------------------------------|

at ikaw ay malinawan
Dahil nabihag mo ang aking paningin at damdamin
Ah sige tawa lang nang tawa
                           e|--------------------------------|
                           B|--------------------------------|
                           G|------9-x-11p9------------------|
                           D|-9h11-----------11-9--9/11\(9)--|
                           A|--------------------------------|
                           E|--------------------------------|

Ako pa ba ay nakikita
Nalimutan ko ang itsura ko
Kapag kausap na ikaw
sana naman ako'y pakinggan
At nang ikaw ay malinawan
Dahil nabihag mo ang aking paningin at damdamin
    A         G#m     F#m
Oh! Chinito.. Chinito..
Tap to rate this tab
# A B C D E F G H I J K L M N O P Q R S T U V W X Y Z