Guitaretab - guitar tabs
Song name
# A B C D E F G H I J K L M N O P Q R S T U V W X Y Z

Yeng Constantino - Time In tab

Song: Time in
Artist: Yeng Constantino
Tabbed by: francin of detail city band (a.k.a eyescubed of LFC)
Any problems: rakista_muzang15@yahoo.com
Problems: (solo) scaling (kappa lang yan hirap ehh di masupra sory)


intro
e|-----------------------------------------------------|
B|--7/9-----------------7/9----------------------------|
G|------7-9-11--11p9-7------7-9-11--11p9-7--11-11-9-9--|
D|-----------------------------------------------------|
A|-----------------------------------------------------|
E|-----------------------------------------------------|

verse
e|-------------------------|
B|-------------------------|
G|--7-7--------------------|
D|--7-7--7-7--9-9--5-5--7--|
A|--5-5--7-7--9-9--5-5--7--|
E|-------5-5--7-7--3-3--5--|2X

Pre-chorus
e|--xxxxxxxx------------xxxx---------------|
B|--xxxxxxxx------------xxxx---------------|
G|--xxxxxxxx------------xxxx--7777---------|
D|--22222222--55555555--2222--7777--55555--|
A|--22222222--55555555--2222--5555--55555--|
E|--00000000--33333333--0000--------33333--|

chorus
e|------------------------------------------|
B|------------------------------------------|
G|--77777777--------------------------------|
D|--77777777--77777777--99999999--55555555--|
A|--55555555--77777777--99999999--55555555--|
E|------------55555555--77777777--33333333--|2X

verse
e|-------------------------|
B|-------------------------|
G|--7-7--------------------|
D|--7-7--7-7--9-9--5-5-7---|
A|--5-5--7-7--9-9--5-5-7---|
E|-------5-5--7-7--3-3-5---|

Pre-chorus
e|--xxxxxxxx------------xxxx---------------|
B|--xxxxxxxx------------xxxx---------------|
G|--xxxxxxxx------------xxxx--7777---------|
D|--22222222--55555555--2222--7777--55555--|
A|--22222222--55555555--2222--5555--55555--|
E|--00000000--33333333--0000--------33333--|

chorus
e|------------------------------------------|
B|------------------------------------------|
G|--77777777--------------------------------|
D|--77777777--77777777--99999999--55555555--|
A|--55555555--77777777--99999999--55555555--|
E|------------55555555--77777777--33333333--|2X
[ Tab from: http://www.guitaretab.com/y/yeng-constantino/88194.html ]
Solo
e|--------------------------------------------------------------------|
B|--14b-15b--------------------12~------------------------------------|
G|-----------12h14h16-12h14h16--------12p11-9-7-7h9-11----------------|
D|---------------------------------12------------------9p7------------|
A|--------------------------------------------------------------------|
E|--------------------------------------------------------------------|

e|--------------------------------------------------------------------|
B|--------------------------------10-12-10-7--------------------------|
G|------------------------9-11-12-------------------------------------|
D|----------------9-11-12---------------------------------------------|
A|--------9-10-12-----------------------------------------------------|
E|--10-12-------------------------------------------------------------|

bridge
e|--------------------------------------------|
B|--------------------------------------------|
G|--44444444------------7777------------------|
D|--44444444--77777777--7777--5555--77777777--|
A|--22222222--77777777--5555--5555--77777777--|
E|------------55555555--------3333--55555555--| 2X

adlib
e|--14h15p14\12-109h10p9---------------|
B|------------------------107h8p7------|
G|---------------------------------9-7--|
D|--------------------------------------|
A|--------------------------------------|
E|--------------------------------------|

Bridge 2
e|------------------------------------------------------|
B|------------------------------------------------------|
G|--7~-----------7~-----------7~-----------7~-----------|
D|--7~--7~--9~~--7~--7~--9~~--7~--7~--5~~--7~--7~--5~~--|
A|--5~--7~--9~~--5~--7~--9~~--5~--7~--5~~--5~--7~--5~~--|
E|------5~--7~~------5~--7~~------5~--3~~------5~--3~~--|

e|----------------------------------|
B|----------------------------------|
G|--7~--------------7~--------------|
D|--7~--7~--9~--5~--7~--7~--7~--5~--|
A|--5~--7~--9~--5~--5~--7~--7~--5~--|
E|------5~--7~--3~------5~--7~--3~--|


Pre-chorus
e|--xxxxxxxx------------xxxx---------------|
B|--xxxxxxxx------------xxxx---------------|
G|--xxxxxxxx------------xxxx--7777---------|
D|--22222222--55555555--2222--7777--55555--|
A|--22222222--55555555--2222--5555--55555--|
E|--00000000--33333333--0000--------33333--|


chorus
e|------------------------------------------|
B|------------------------------------------|
G|--77777777--------------------------------|
D|--77777777--77777777--99999999--55555555--|
A|--55555555--77777777--99999999--55555555--|
E|------------55555555--77777777--33333333--|2X
Related for Time In tab