Song name
# A B C D E F G H I J K L M N O P Q R S T U V W X Y Z

Yes Sir Boss - Not Guilty tab

Not guilty by Yes sir Boss



(E A D G B E)

 4/4
  
|-5--0---8--0---|
|-5--5--10--5---|
|-5--4--10--4---| THE CHORDS PLAYED THROUGH MOST OF THE SONG (OFFBEAT)
|-7--2--10--2---|
|---------------|
|---------------|

CHORUS TUNE

|----------------------------------------------------------------------|
|----------------------------------------------------------------------|
|----------------------------------------------------------------------|
|-2------------------------5-3--------------6-7--------2-3-2-0-2-10-10-|
|---3-----2-3-2----------------5-6--7-7-7-7-----7-3--5-----------------| 
|-----5-5-------3--0-0-1-0---------------------------------------------|


|------------------|
|------------------|
|------------------|
|-14-14-12-12-9----|
|------------------|
|------------------|

CHORUS INTRODUCTION TUNE
 
|---------------------------------|-----------------|------------------|
|---------------------------------|-----------------|------------------|
|---------------------------------|-----------------|------------------|
|---------------------------------|-----------------|------------------|
|---2-3-2---3-2-----------3-3-2---|---2-3-2---3-2---|---------3---2----|
|-5-------5-----3-0-0-1-1-------4-|-5-------5-----3-|-0-0-1-1-------4--|

BREAKDOWN

                     
|-----------------------------------------|
|-1---------------------------------------|
|--2--------------------------------------| times 4
|---2-------------------------------------|
|-----------------------------------------|
|-----------------------------------------|
                                                    REPEAT FOR A WHILE

|-----------------------------------------|
|-2---------------------------------------|
|--2--------------------------------------| times 4
|---2-------------------------------------|
|-----------------------------------------|
|-----------------------------------------|

Then change to following bar chords

|-------------5-----------5---------------|
|-------------5-----------5---------------|
|-------------5-----------6---------------|
|-------------7-----------7---------------|
|-------------7-----------7---------------|
|-------------5-----------5---------------|

       end of breakdown tune:
|-----------------------------------------|
|-----------------------------------------|
|-----------------------------------------|
|------------------3-2--------------------|
|--000-222-333-555------------------------|
|-----------------------------------------|

solo guitar chords and then

|-----------------------------------------|
|-----------------------------------------|
|-----------------------------------------|
|-----------------------------------------|
|-----------------------------------------|
|--0000-4---------------------------------|

into chorus intro and then 2 choruses and end

http://www.yessirboss.com
Tap to rate this tab
# A B C D E F G H I J K L M N O P Q R S T U V W X Y Z