Song name
# A B C D E F G H I J K L M N O P Q R S T U V W X Y Z

Yes - The Revealing Science Of God tab

E---12------------------------111211-11-111214121116-1112141211-11-17-16--|
B------14--12--14---------1214--------------------------------------------|
G-----------------13--1314------------------------------------------------|
D-------------------------------------------------------------------------|
A-------------------------------------------------------------------------|
E-------------------------------------------------------------------------|
                                                  Right here fast Pulloffs
----------19-------17-------16-------17-16-14-12-16-1416141214121112119119-|
14~-141617---141617---141617---141617--------------------------------------|
---------------------------------------------------------------------------|
---------------------------------------------------------------------------|
---------------------------------------------------------------------------|
---------------------------------------------------------------------------|
                                                   Fade into Swelling
-8~-------12------10------9~-7-9-7-9-7-9-7-9-7~-7979797979----------------|
-----91012---91012---91012------------------------------------------------|
--------------------------------------------------------------------------|
--------------------------------------------------------------------------|
--------------------------------------------------------------------------|
--------------------------------------------------------------------------|

I hope this works out well for guitar players becuase its my first tab. Good Luck!
Tap to rate this tab
# A B C D E F G H I J K L M N O P Q R S T U V W X Y Z