Song name
# A B C D E F G H I J K L M N O P Q R S T U V W X Y Z

Yes - Owner Of A Lonely Heart Acoustic tab

Artist:      Yes
Title:       Owner Of A Lonely Heart (acoustic intro0
Tabbed By:   Mr Noobert

* = Let Ring
/ = Slide Up


E|------x-----------x----------------------------------|
B|------x-----------x----------------------------------|
G|------x-----------x----------------------------------|
D|------x--5-5--7-7-x----------------------------------|
A|-7-7--x--3-3--5-5-x-5-5-5----------------------------|
E|-5-5--x-----------x-3-3-3----------------------------|

E|------x------------/12--x----------------------------|
B|------x------------/12--x----------------------------|
G|------x-----------------x----------------------------|
D|------x--5-5--7-7-------x----------------------------|
A|-7-7--x--3-3--5-5-------x----------------------------|
E|-5-5--x-----------------x----------------------------|

E|------x-----------x----------------------------------|
B|------x-----------x----------------------------------|
G|------x-----------x----------------------------------|
D|------x--5-5--7-7-x----------------------------------|
A|-7-7--x--3-3--5-5-x-5-5-5----------------------------|
E|-5-5--x-----------x-3-3-3----------------------------|

E|------x--------------------------|
B|------x--------------------------|
G|------x--------------------------|
D|------x--5-5--7-7*---------------|
A|-7-7--x--3-3--5-5*---------------|
E|-5-5--x--------------------------|


Tap to rate this tab
# A B C D E F G H I J K L M N O P Q R S T U V W X Y Z