Song name
# A B C D E F G H I J K L M N O P Q R S T U V W X Y Z

Yes - Sound Chaser tab

 

This is only a small part of the solo, but it 
is the most fun part to play. Start out playing 
it slow, then gradually build up speed. It's the 
best way to learn Steve Howe's music (believe me, 
it's how I learned The Clap). I'll eventually 
figure out the rest of the solo and put it up.


E|---2---3-----------3-------------------------------|
A|-----------1---2--------1---2---4-----------4------|
D|------------------------------------0---2-------0--|
G|---------------------------------------------------|
B|---------------------------------------------------|
e| --------------------------------------------------|



E|---------------------------------------------------|
A|-------------------------------------------4-------|
D|---2---4-----------4-------2---4---0---2-------0---|
G|-----------0---2-------0---------------------------|
B|---------------------------------------------------|
e|---------------------------------------------------|


Repeat 3 times then join to next part.




Sorry that's all I have. Hope it works for you.

Tap to rate this tab
 
# A B C D E F G H I J K L M N O P Q R S T U V W X Y Z