Song name
# A B C D E F G H I J K L M N O P Q R S T U V W X Y Z

Yes - Your Move tab

This song is in E, unlike 99% of the tabs I have found here.  However, this tab is not 
as it is an octave lower and tabbed for a standard 6 string accoustic.

Tuning is standard.

Opening guitar solo:

||-----------------|----------------|-----------------|----------------||
||--0-0h20-0h2-0-5-|X-4-X-0~--0-----|--0-0h20-0h2-0---|------0~--------||
||--1-1h21-1h2-1-6-|X-4-X-1~----1---|--1-1h21-1h2-1-2-|X-1-X-1~--1~----||
||-----------------|--------------2~|---------------4-|X-2-X-------1~--||
||-----------------|--------------2~|-----------------|--------------2~||
||-----------------|--------------0~|-----------------|----------------||

||-----------------|----------------|----------------|----------------||
||--0-0h20-0h2-0-5-|X-4-X-7-X-5-X-7~|--7-----7-----7-|----9-----7-----||
||--1-1h21-1h2-1-6-|X-4-X-8-X-6-X-6~|------6-----6---|--6-----6-----6-||
||-----------------|--------------7~|----7-----7-----|7-----7-----7---||
||-----------------|----------------|----------------|----------------||
||-----------------|----------------|----------------|----------------||


An alternate to the last bit:

---------2~|--2-----2-----2-|----4-----2-----||
-7-X-5-X-2~|------2-----2---|--2-----2-----2-||
-8-X-6-X-2~|----2-----2-----|2-----2-----2---||
-----------|----------------|----------------||
-----------|----------------|----------------||
-----------|----------------|----------------||


The alternate above I found makes it easier to move to the next chord, which is E.

Chords during singing:

    E  A  F#7  A
||--0--0--0--0--||
||--0--2--4--2--||
||--1--2--4--2--||
||--2--2--4--2--||
||--2--0--X--2--||
||--0--0--0--0--||


As long as you follow this basic progression, it's really easy to hear the strumming 
and when you hold one longer and all that.  Above, where the chord sounds minor, it's 
an Emaj7, just played without an E.  This is correct, it is actually what he plays.

This should be plenty for you guys to work with.  Any questions or if I missed 
email me.  Enjoy, guys!

h=Hammer-on
~=Let ring
Tap to rate this tab
 
# A B C D E F G H I J K L M N O P Q R S T U V W X Y Z