Song name
# A B C D E F G H I J K L M N O P Q R S T U V W X Y Z

Yes - Heart Of The Sunrise tab

----------------------------------------------------------------------------
			    Heart of the sunrise - Yes
----------------------------------------------------------------------------
Tabbed by:S/ash
Tuning:Normal
~~~~~~~
~Intro~
~~~~~~~
Okay you don't actually play it like this but play this to get started.
Once you have that then put it together how you wish.
Also to play it the real way you need a keyboardist.
e|-------------------------------------------------------------------------|
B|-------------------------------------------------------------------------|
G|-------------------------------------------------------------------------|
D|-------------------------------------4---4h6-6-6-6-6--4h6-6-6-6-6--------|
A|---------------------------2-3-4-5-6-------------------------------------|
E|--2h4-4-4-4-4--2h4-4-4-4-4-----------------------------------------------|

e|------------------------------------------7-8-9-10-11-14-----------------|
B|------------7--7h9-9-9-9-9--7h9-9-9-9-9----------------------------------|
G|--4-5-6-7-8--------------------------------------------------------------|
D|-------------------------------------------------------------------------|
A|-------------------------------------------------------------------------|
E|-------------------------------------------------------------------------|

e|--14h16-16-16-16-16--14h16-16-16-16----14--------------------------------|
B|------------------------------------------16-15-14-13-12-----------------|
G|---------------------------------------------------------13--------------|
D|-------------------------------------------------------------------------|
A|-------------------------------------------------------------------------|
E|-------------------------------------------------------------------------|

e|-------------------------------------------------------------------------|
B|-------------------------------------------------------------------------|
G|--11h13-13-13-13-13--11h13-13-13-13-13---11------------------------------|
D|--------------------------------------------13-12-11-10-9----------------|
A|----------------------------------------------------------11-------------|
E|-------------------------------------------------------------------------|

e|-------------------------------------------------------------------------|
B|-------------------------------------------------------------------------|
G|-------------------------------------------------------------------------|
D|-------------------------------------------------------------------------|
A|--9h11-11-11-11-11--9h11-11-11-11-11---9---------------------------------|
E|-----------------------------------------11-10-9-8-7-2-2h4-4-4-4-4-Ect---|
This part is also played somewhere else in the song.

Okay after that steve does this ending riff to the intro like this:
e|--4------------------------------------------11---9---19---11h12p11p9h11-|
B|-----4--------2-----4----7--5h7p5h7p5h7p5h7------------------------------|
G|--------4--3-----4-----6-------------------------------------------------|
D|-------------------------------------------------------------------------|
A|-------------------------------------------------------------------------|
E|-------------------------------------------------------------------------|

That's all I got so far. I'll be back with more. Please rate!
Tap to rate this tab
# A B C D E F G H I J K L M N O P Q R S T U V W X Y Z