Song name
# A B C D E F G H I J K L M N O P Q R S T U V W X Y Z

Yes - Awaken tab

-------------------------------------------------------------------------------
			     Awaken - Yes
-------------------------------------------------------------------------------
Tabbed by: Jonathan 
Email: plughumanbaby@yahoo.com

Tuning: Standard

(Piano Intro)

(Keyboards, "High vibration go round...")

Guitar main riff (Starting at 1:33)

e|---------------------------------------------------------------------------|
B|---------12------------10------12-13----10-12----8-10----7-----------------|
G|----------9--------11------------------------------------------------------|
D|---------------------------------------------------------------------------|
A|---7-----------------------------------------------------------------------|
E|---------------------------------------------------------------------------|

Repeat many times, variations with bending and tremolo picking.


Variations of a riff, much improvisation. 


Much later part, just though it would help to publish... (Starting at 3:11)

e|---------------------------------------------------------------------------|
B|---10--8-----------8-------------------------------------------------------|
G|-----------9--11-------9---------------------------------------------------|
D|--------------------------9------------------------------------------------|
A|---------------------------------------------------------------------------|
E|---------------------------------------------------------------------------|
It is sent up an octave, too.

************************************

| /   slide up
| \   slide down
| h   hammer-on
| p   pull-off
| ~   vibrato
| +   harmonic
| x   Mute note
| b   Bend
| pb  Pre-bend
| br  Bend release
| pbr Pre-bend release
| brb Bend release bend

************************************
Tap to rate this tab
# A B C D E F G H I J K L M N O P Q R S T U V W X Y Z