Song name
# A B C D E F G H I J K L M N O P Q R S T U V W X Y Z

Yes - Siberian Khatru Live tab

YES - SIBERIAN KHATRU (intro of live version)


tabbed by: h/k in 16 September 2011 from Guitar World's "Steve Howe Lesson"



--------------------3--3--3--3--3---------------------------|
----------2p0--2p0-----2--2--2--2----------7----------9/8/9-|
--0h2--0---------------0--0--0--0--5h7--5-----7h9--7--------|
--0----0---------------0--0--0--0--5----5-----7----7--------|
-----------------------0--0--0--0---------------------------|
-----------------------0--0--0--0---------------------------|



---------------------0---------------------------------------|
----------------7p0------------------------------------------|
--------9--7p0-------------------------14-----------------16-|
-7h9--7-----------------12h14--12--12------14h16--14--14-----|
-7----7-----------------12-----12----------14-----14---------|
-------------------------------------------------------------|



------------------------------------------------------------|
------------------------------------------------------------|
------------------------------------------------------------|
------------------------------------------------------------|
-18--15--10--17---------------------------------------------|
-16--14---9--14---------------------------------------------|
Tap to rate this tab
# A B C D E F G H I J K L M N O P Q R S T U V W X Y Z