Song name
# A B C D E F G H I J K L M N O P Q R S T U V W X Y Z

Yes - City Of Love tab

The song is pretty damn simple. I don't think I'm entirely accurate, but it sounds 
accurate enough to play along with and have fun.

It starts out a bit hypnotic, echoing "city of love, city of love.." over and over. W/ base.

 Hey!...
e|---------------------|
B|---------------------|
G|---------------------|
D|--20--0/1/2-00--0/1/2| Repeat 5 more times
A|--20--------20-------|
E|--00--------20-------|

Pre-chorus
e|------33-2-22-3--33-3-22-3--33-2-22-3--33-3-22----------|
B|------33-2-22-3--33-3-22-3--33-2-22-3--33-3-22----------|
G|--------------------------------------------------------|
D|2s--5-------------------------------------------0/1/2-00|
A|2s--3-------------------------------------------------20|
E|0s--3-------------------------------------------------20|

e|----------------------------------------------------|
B|----------------------------------------------------|
G|----------------------------------------------------|
D|-0/1/2-00-0/1/2-00-0-00000-3-3333-100-0000----------|  Repeat x2
A|-------20-------20-2-22222-5-5555-320-0005(slide)17-|
E|-------20-------20-2-22222-5-5555-320-0000----------|

Ending on the second play of        ^ is
e|-----------------------------------------|
B|-----------------------------------------|
G|-----------------------------------------|
D|100-0000-9999999999999-------------------|
A|320-0000-9999999999999-0-1-2-10-7-5-2-1-0|
E|320-0000-7777777777777-------------------|


It's the same thing for the next couple verses and chorus

Here is what I've gotten from the small solo at the end of the second chorus

e|---------------------------------------------------|
B|---------------------------------------------------|
G|---------------------------------------------------|
D|-14--12-9-7-2--14--12-9-7-2--2220--------2220------|
A|-----------------------------------2220--------2220|
e|---------------------------------------------------|

For the rest of the solo, you're on your own bro. I'm an amateur myself, and I can't 
decode that crap for the life of me xD. But during the solo it's the regular, simple riff 
if you just want to pick that back up on the solo part.

That's about it though. You repeat this process over and over. Listen to the song for 
reference on where to do these parts and what the tempo is.
http://www.youtube.com/watch?v=MvoOWfAC7e0  (here is the link to a good quality video)
Tap to rate this tab
 
# A B C D E F G H I J K L M N O P Q R S T U V W X Y Z