Song name
# A B C D E F G H I J K L M N O P Q R S T U V W X Y Z

Yes - Ive Seen All Good People Acoustic tab

THIE IS THE VERSON OF THE SONG OFF OF THE YES ACOUSTIC DVD I THINK I TABED IT OUT PRETTY 
BUT IM ONLY 14 AND THIS IS MY FIRST TAB SO GO EASY ON ME

/=SLIDE
\=BACK SLIDE
H=HAMER ON
P=PULL OFF
(0)=PLAY SOFTER THEN THE OTHER NOTES

INTRO
E-----------------0-00------------------------------4-|
A--------------------------------------------------0--|
D------------------------------------------------(6)--|
G-4-5-4-4-4-9-7-4------4-5-4-5--\4-4-2-1-4---- (6)----|
B--------------------------------------------5--------|
e-4-6-4-6-4-4-8-4------4-6-4-6P5\4-4-2-0-6-4----------|

E--------------------------------|
A--------------------------------|
D--------------------------------|
G-4/5----\4-5--\4-4-9\7-8-11\9-9-|
B--------------------------------|
e-4/5H6P5\4-6P5\4-4-9\7-9-11\9-9-|

E------------------------------------------------------). (OK THIS MIGHT NOT
A------------------------------------------------------). SOUND RIGHT AT FIRST
D---13----13------13--(13)--(13)-----------------------). BUT ONCE YOU CAN PLAY
G-14----14--14--14--14----14----14-14-14---------------). IT UP TO SPEED IT SOUNDS
B---------------------------------------- PRETTY GOOD--).
e-14--14------14----16----17----16-14-17---------------).

I COULDENT FIGURE OUT THE FIRST FEW CORDS STEVE PLAYS BUT HERS THE
REST OF THEM,(YOU CAN JUST PLAY THIS AFTER THE INTRO, IT SOUNDS FINE)
THE STRUM PATTER IS PRETTY EASY TO FIGURE OUT SO HERE ARE THE CORDS

   E    E#M7SUS4/E    EMAJ7       A
E--0--    E--0--      E--0--   E--X--|
A--2--    A--4--      A--6--   A--0--|
D--2--    D--4--      D--6--   D--2--|
G--1--    G--2--      G--4--   G--2--|
B--0--    B--0--      B--0--   B--2--|
e--0--    e--0--      e--0--   e--0--|

VERSE
E, EM#7SUS4/E, EMAJ7SUS4/E, E

CHOURS
E,EM27SUS4/E, A, E
(WOOPS I JUST NOTICED THAT I JUST SUBMITED THIS AS LONG DISTANCE
RUNAROUND, SORY ABOUT THE MIX UP.
Tap to rate this tab
# A B C D E F G H I J K L M N O P Q R S T U V W X Y Z