Song name
# A B C D E F G H I J K L M N O P Q R S T U V W X Y Z

Yes - To Be Over tab

This is the Steve Howe acoustic version of the yes song 'To Be Over'. If you have any
questions you can e-mail me at katschkeith@hotmail.com , or instant message me at
FELLLnUtoilet. I have other bits and pieces of the song.

-------------------------------------------------------|
0----12-12-12-14---------------12-12-12-14-17-14-14-12-|
-------------------9-9-9-11----------------------------|
-------------------------------------------------------|
-------------------------------------------------------|
-------------------------------------------------------|


-------------------------------------------------------|
12-12-12-14--------------------------------------------|
------------9-9-9-11---6-6-11-9------------------------|
-------------------------------------------------------|
-------------------------------------------------------|
-------------------------------------------------------|
Tap to rate this tab
 
# A B C D E F G H I J K L M N O P Q R S T U V W X Y Z