Guitaretab - guitar tabs
Song name
# A B C D E F G H I J K L M N O P Q R S T U V W X Y Z

Yes - Five Percent For Nothing tab

Five Percent for Nothing

By: Bill Bruford

This is a weird song not difficult technically but challenging when played in group 
itís all counterpoints.
This is the guitar part played by Steve Howe


Transcribed by: Martin Filion

E|-----------------|-----------------|-----------------|-----------------|
B|-----------------|-----------------|-----------------|-----------------|
G|-----------------|-----------------|-----------------|-----------------|
D|------------8----|------------8----|--8--------------|--7--------------|
A|-------7---------|-------7---------|-------7---------|-------6---------|
E|--6--------------|--6--------------|------------6----|------------5----|


E|-----------------|-----------------|-----------------|-----------------|
B|-----------------|-----------------|-----------------|-----------------|
G|-----------------|-----------------|-----------------|-----------------|
D|------------6----|------------6----|--6--------------|--6--------------|
A|-------5---------|-------5---------|-------5---------|-------5---------|
E|--4--------------|--4--------------|------------4----|------------4----|


E|-----------------|-----------------|-----------------|--------13-15/16-|
B|-----------------|-----------------|-----------------|-----------------|
G|-----------------|-----------------|-----------------|-----------------|
D|-----------------|-----------------|-------6---------|-----------------|
A|--------6--------|-----------------|--8---------8----|--10--11---------|
E|--6---------1----|--1-----2-----6--|-----------------|-----------------|

[ Tab from: http://www.guitaretab.com/y/yes/97237.html ]
E|-----------------|-----------------|-----------------|-----------------|
B|-----------------|-----------------|-----------------|-----------------|
G|--10-------------|--10-------------|--10-------------|--10-------------|
D|-------9---------|-------9---------|-------9---------|-------9---------|
A|------------8----|------------8----|------------8----|------------8----|
E|-----------------|-----------------|-----------------|-----------------|


E|-----------------|-----------------|-----------------|-----------------|
B|-----------------|-----------------|-----------------|-----------------|
G|-----------------|-----------------|-----------------|-----------------|
D|------------8----|------------8----|--8--------------|--7--------------|
A|-------7---------|-------7---------|-------7---------|-------6---------|
E|--6--------------|--6--------------|------------6----|------------5----|


E|-----------------|-----------------|-----------------|-----------------|
B|-----------------|-----------------|-----------------|-----------------|
G|-----------------|-----------------|-----------------|-----------------|
D|------------6----|------------6----|--6--------------|--6--------------|
A|-------5---------|-------5---------|-------5---------|-------5---------|
E|--4--------------|--4--------------|------------4----|------------4----|

E|-----------------|-----------------|-----------------|--------13-15/16-|
B|-----------------|-----------------|-----------------|-----------------|
G|-----------------|-----------------|-----------------|-----------------|
D|-----------------|-----------------|-------6---------|-----------------|
A|--------6--------|-----------------|--8---------8----|--10--11---------|
E|--6---------1----|--1-----2-----6--|-----------------|-----------------|

E|-----------------|-----------------|-----------------|-----------------|
B|-----------------|-----------------|-----------------|-----------------|
G|--10-------------|--10-------------|--10-------------|--10-------------|
D|-------9---------|-------9---------|-------9---------|-------9---------|
A|------------8----|------------8----|------------8----|------------8----|
E|-----------------|-----------------|-----------------|-----------------|
Related for Five Percent For Nothing tab