Song name
# A B C D E F G H I J K L M N O P Q R S T U V W X Y Z

Yesterdays Rising - Lets Take Slow Steps tab

Http://www.yesterdaysrising.com
Http://www.fearlessrecords.com

This song is tuned to a Drop D so make sure to tune it 
right or it will sound bad




/slide up





e|-----------------------------------------------|
B|-----------------------------------------------|
G|-14-14-14-14--10-10-10--14-14-14-14--10-10-10--|
D|-0--0--0--0---0--0--0---0--0--0--0---0--0--0---|
A|-----------------------------------------------|
D|-----------------------------------------------|


e|-----------------------------------------------|
B|-----------------------------------------------|
G|-----------------------------------------------|
D|-----------------------------------------------|
A|-12-12-12-12--10-10-10--8-8-8-8--7-7-7---------|
D|-8--8--8--8---8--8--8---5-5-5-5--5-5-5---------|

 
e|-----------------------------------------------|
B|-----------------------------------------------|
G|-14-14-14-14--10-10-10--17-17-17-17-17-17-17---|
D|-0--0--0--0---0--0--0---0--0--0--0--0--0--0----|
A|-----------------------------------------------|
D|-----------------------------------------------|

  
e|-----------------------------------------------|
B|-----------------------------------------------|
G|-----------------------------------------------|
D|-----------------------------------------------|
A|-12-12-12-12--10-10-10--8-8-8-8--7-7-7---------|
D|-8--8--8--8---8--8--8---5-5-5-5--5-5-5---------|


do that whole riff twice  


e|-----------------------------------------------|
B|-----------------------------------------------|
G|-----------------------------------------------|
D|-----------------------------------------------|
A|-0-1/7--000-1/7--0000-7------------------------|
D|-0-1/7--000-1/7--0000-7------------------------|


e|-----------------------------------------------|
B|-----------------------------------------------|
G|-----------------------------------------------|
D|-----------------------------------------------| 
A|-3--333-555555--3--333--5-3-2------------------|
D|-3--333-555555--3--333--5-3-2------------------|

I dont know the ending
Tap to rate this tab
 
# A B C D E F G H I J K L M N O P Q R S T U V W X Y Z