Song name
# A B C D E F G H I J K L M N O P Q R S T U V W X Y Z

Ying Yang Twins - Ai Yi Yi Yi Yi tab

E)-------------------------------------------
B)-------------------------------------------
G)-------------------------------------------
D)-------------------------------------------
A)0h1h3---0h1h3---0h1h3----------------------
E)-----------------------0-0-----------------

E)-------------------------------------------
B)-------------------------------------------
G)-------------------------------------------
D)-------------------------------------------
A)0h1h3---0h1h3---0h1h3----------------------
E)-----------------------0-0-----------------

E)-------------------------------------------
B)-------------------------------------------
G)-------------------------------------------
D)-------------------------------------------
A)0h1h3---0h1h3---0h1h3---------0h1h3-3------
E)-----------------------0-0-----------3-3-0-

  An ya just repeat it over an over in da whole song
Tap to rate this tab
# A B C D E F G H I J K L M N O P Q R S T U V W X Y Z