Song name
# A B C D E F G H I J K L M N O P Q R S T U V W X Y Z

Ying Yang Twins - Say I Yi Yi tab

Intro/Chorus

She got her hands up on her knees and her bows on her thighs
E)------------------------------|
B)------------------------------|
G)------------------------------|
D)------------------------------|
A)0-0-1-3-0-0-1-3-0-0-1-3-1-----|
E)--------------------------0-0-|

She got the twerk and thats for certain I can tell that she fly
E)------------------------------|
B)------------------------------|
G)------------------------------|
D)------------------------------|
A)0-0-1-3-0-0-1-3-0-0-1-3-1-----|
E)--------------------------0-0-|

She got me hype, I wanna bite her right now yi yi
E)------------------------------|
B)------------------------------|
G)------------------------------|
D)------------------------------|
A)0-0-1-3-0-0-1-3-0-0-1-3-------|
E)--------------------------0-0-|

Say I yi yi yi yi
E)------------|
B)------------|
G)------------|
D)------------|
A)1-3-3-1-----|
E)--------3-0-|
Tap to rate this tab
# A B C D E F G H I J K L M N O P Q R S T U V W X Y Z