Song name
# A B C D E F G H I J K L M N O P Q R S T U V W X Y Z

Yiruma - Kiss The Rain tab

-------------------------------------------------------------------------------
			     Kiss The Rain - Yiruma
-------------------------------------------------------------------------------
Tabbed by:Ching Vang
Email:chingy-vang@hotmail.com
Tuning:Standard

The Original song on guitar is played by Ritschi2, 
here http://www.youtube.com/watch?v=yCKDGL8Dpw4.
 He said there were tabs available but I couldn’t find it anywhere, so I tabbed it myself.
 It is not 100% correct because I just tabbed it by ear. Enjoy and feel free to e-mail 
for comments and corrections.

e|----------------------------------------------0--------------0----1-----4--|
B|------0---0------2--------------0----2----0-------------2------------------|
G|----2------------2------2---2---------------------1------------------------|
D|--2----------2-------2------------------------2------2---------------------|
A|----------0-------------------------------4--------------------------------|
E|---------------------------------------------------------------------------|

e|--4-----5---5------------7-7h9-7----5-----4---------------------5---4------|
B|------------2-------2------------------------------5-------------------5---|
G|--2-------------2------------------------------6-------6-------------------|
D|---------------------------------------------------------------------------|
A|-----------------------------------------------------------7---------------|
E|--2---------------------------------------0--------------------------------|

e|-0---2--------------0-----------0------------------------------------------|
B|---------3------3-------3---3-------------2------0---2---3-----------------|
G|-1----------2--------------------------2------2--------------------2-------|
D|-0----------------------------------2---------------------------4----------|
A|----------------------------4------------------------2-------5-------------|
E|---------------------------------------------------------------------------|


e|--0------------------------------------------------------------------------|
B|----3----2-----------0-----------------------------------------------------|
G|---------2-----2-----1--------Repeat from beginning & when you reach-------|
D|------------4----4---------------this part, it changed---------------------|
A|---------------------------------------------------------------------------|
E|---------0-----------0-----------------------------------------------------|

e|-------0-------------------------------------------------------------------|
B|--3------------2-----0----2----3------------------------------0----3----2--|
G|------------2-----2----------------2------2-----1------2-------------------|
D|---------2----------------------------4------2-----2-------2---------------|
A|--4-----------------------2----------------------------0----------------0--|
E|------------------------------------------0--------------------------------|

e|--------0--2-------0------------------2---0--------------------0---0-------|
B|-----2-----------------------------------------------------------------3---|
G|--2------------2------2---2---1---2-------------2--1--2--1--2--------------|
D|-----------0-------4------0------------------2---------------------4-------|
A|------------------------------------------4-----------4------------2-------|
E|---------------------------------------------------------------------------|

e|--------------------------------------------------0---2---------2----4-----|
B|--3---2---2---0---0-----0---2------------------2------1------1-------4-----|
G|--2------------------2---------2------2-----2---------2---2----------5-----|
D|----------------------------------2-------------------1--------------6-----|
A|--0---------------------0-------------0------------------------------------|
E|----------0----------------------------------------------------------------|

e|--4---4-------------------------0------------------------------2------4----|
B|------4---7---5-----------2h3---0------2---2---3-------5-------------------|
G|----------------------6------------3-------------------------------2-----2-|
D|------6------------6-------------------------------4------4----0-----------|
A|--------------4--------------------------------2---------------------------|
E|--------------------------------2------------------------------------------|


e|--5----9---------------7-------------------------7----9----9----10-----------|
B|-------10-----10-------9-----------------------------------7------------7----|
G|-------9----9----9-----7------Skip to Ending---------------7---------7-------|
D|-----------------------------------------------------------------------------|
A|-----------------------------------------------------------------------------|
E|-------0---------------0-----------------------------------7-----------------|
|

e|---5--------4----------5---------------------------------------------------|
B|---------------------------------------5-----------------------------------|
G|-------6---------------------------6---------------------------------------|
D|-----------------6--------------7------------------------------------------|
A|---7--------7---------------7----------------------------------------------|
E|-----------------------5---------------------------------------------------|


| /  slide up
| \  slide down
| h  hammer-on
| p  pull-off
| ~  vibrato
| +  harmonic
| x  Mute note
Tap to rate this tab
# A B C D E F G H I J K L M N O P Q R S T U V W X Y Z