Song name
# A B C D E F G H I J K L M N O P Q R S T U V W X Y Z

Yiruma - River Flows In You tab

River Flows In You  Yiruma
(Guitar Cover)

Standard Tuning
Capo on 5th fret (Slid it up to wherever if you want it to sound spot-on)
Tabbed by evilelmo78

Video of me playing it:
(Apologies for any mistakes)

This Version was heabily drawn from and influenced by the YouTuber, 'scrabblers'. This 
is not spot on, but it still sounds great.

Intro
E------------------------|-------------------------|
B--3-2-3-2----3----3-----|-----3-2-3-2----3----3---|
G--0----------2--2---0---|-----0----------2-2----0-|
D--0----------0----------|---0---------------------|
A--2---------------------|--2----------------------|
E-------------3----------|----------------3--------|

E----------------------|------------------|
B-----3---2-3-----2-3--|--3-----3---------|
G-----0----------------|--2---2---2-------|
D---0-----------0------|----0-------0---0-|
A--2----2-----2--------|--------------0---|
E----------------------|--3---------------|

Fill
E-------------|---------------------|----------------|
B-------------|---------------------|----------------|
G-----0-2-0---|---------------------|---0-2---0------|
D-2/4-------2-|---0-0----0---0-2--4-|-4---------4-2--|
A-----------0-|-4---2--2---2--------|-------------0--|
E-0-----------|-------------------3-|-3---0----------|

Bridge
E----------------------|----------------------------------------|
B-----3---2-3-----2-3--|-3-----3-----------------7-5--5h7p5-3-2-|
G-----0----------------|-2---2---2------------0-2---------------|
D---0-----------0------|---0-------0---0--2/4-------------------|
A--2----2-----2--------|-------------0----------------0---------|
E----------------------|-3---------------0----------------------|

E--------------------------|
B--3-----------------------|
G--0---0-2-4--4-5-7--7-5-4-|
D----0---------------------|
A--2-----------------------|
E--------------------------|

Solo part 1
E--------------------------------------------2-3-5-2--------|
B-3/5/3-2--3----3/5/3-2--3---3/5/3-2--3-33/5---------5-3-2--|
G----------2-2-----------2-2----------0---------------------|
D-----------------------------------------------------------| X2
A----------2--------------------------0-------------------0-|
E------------------------3----------------------------------|


Solo part 2
E-----------------------------------------------2-3-5-2--------|
B-33/5/3-2--3----33/5/3-2--3---33/5/3-2--3-33/5---------5-3-2--|
G-----------2-2------------2-2-----------0---------------------| X2
D--------------------------------------------------------------|
A-----------2----------------------------0------------------0--|
E--------------------------3-----------------------------------|
Tap to rate this tab
# A B C D E F G H I J K L M N O P Q R S T U V W X Y Z