Song name
# A B C D E F G H I J K L M N O P Q R S T U V W X Y Z

Yiruma - Kiss The Rain tab


Title: Kiss The Rain

Arranged by: Yiruma

Tabbed by: Ryan R. Gonzales

Location: Rosario, Batangas - Philippines

Band: http://www.youtube.com/watch?v=dY0_cK4tskI

Tuning: e B G D A E (Standard Tuning)                                  



     H        E  E  E  E     Q    Q    Q    Q       H        E  E  E  E   
E||-----------------------|----------------------|-----------------------|
B||--------------------0--|--0----2----2----L----|-----------------0--2--|
G||-----------------2-----|------------2----L----|--2--------L--2--------|
D||--------------2--------|--2----L---------2----|-----------------------|
A||-----------------------|--0----L--------------|-----------------------|
E||-----------------------|----------------------|-----------------------|


                                                 ^                    
  Q    Q    Q    Q       H        E  E  E  E     Q    Q    Q    Q     
-------0----0---------|--------------0--2--4--|--4----5----5----L----|
--0-------------------|--2--------L-----------|------------2----L----|
------------1---------|-----------------------|--2----L---------2----|
--2----L---------2----|-----------------------|----------------------|
--4----L--------------|-----------------------|----------------------|
----------------------|-----------------------|--2----L--------------|


  Q.     E.  S  E  E.  S    E  Q    Q    Q    E     E  Q    Q    Q    E   
---------7---7h-9--7---5-|--L--4----L------------|----------5----4-------|
--2----------------------|---------------5-------|--------------------5--|
-------------------------|----------6---------6--|--L--------------------|
-------------------------|-----------------------|-----------------------|
-------------------------|-----------------------|-----7-----------------|
-------------------------|-----0-----------------|-----------------------|


  E  Q    Q    Q    E     E  H        E  E  E     Q    Q    Q    Q     
-----0----2----2-------|-----------------0-----|-------0----0---------|
--L------------3-------|-----3--------L-----3--|--3-------------------|
-----1----L---------2--|--L--------------------|-----------------2----|
-----0----L------------|-----------------------|------------2----L----|
-----------------------|-----------------------|--4----L--------------|
-----------------------|-----------------------|----------------------|


                    ^                                                  
  H        E  E  E  E     E   Q    Q    Q    E     H        Q    Q     
-----------------------|------------------------|-----------0---------|
--2--------L-----0--2--|--L---3----3------------|----------------3----|
--------------2--------|---------------------2--|--L------------------|
--------------------4--|--L---L----L----4-------|---------------------|
--------------------2--|--L---L----L------------|---------------------|
-----------------------|------------------------|---------------------|


  ^                                                                  
  Q    Q    Q    Q       Q    Q    Q    Q       Q    Q    Q    Q     
----------------------|----------------------|----------------------|
--2----L--------------|--0----L---------0----|--0----2----2----L----|
--2----L----2---------|--1----L----2---------|------------2----L----|
--4----4---------4----|-------2--------------|--2----L---------2----|
----------------------|----------------------|--0----L--------------|
--0----L--------------|--0----L--------------|----------------------|


  Q    Q    E  E  E  E     Q    Q    Q    Q       Q    Q    E  E  E  E   
------------------------|-------0----0---------|---------------0--2--4--|
------------------0--2--|--0-------------------|--2---------------------|
--2----L-------2--------|------------1---------|------------------------|
-------2----------------|--2----L---------2----|-------2----------------|
------------0--L--L--L--|--4----L--------------|------------------------|
------------------------|----------------------|------------0--L--L--L--|


  ^                                                                     
  Q    Q    Q    Q       Q    E.  S  E  E.  E.     Q    Q    Q    Q     
--4----5----5----L----|-------7---7h-9--7---5---|--4----L--------------|
------------2----L----|--2----------------------|------------5---------|
--2----L---------2----|-------------------------|-------6---------6----|
----------------------|-------------------------|----------------------|
----------------------|-------------------------|----------------------|
--2----L--------------|-------------------------|--0-------------------|


  Q    Q    Q    Q       Q    Q    Q    Q       Q    Q    Q    E  E   
-------5----4---------|--0----2----2---------|-----------------0-----|
-----------------5----|------------3---------|--3-----------------3--|
----------------------|--1----L---------2----|-------2---------------|
----------------------|--0----L--------------|------------0----L--L--|
--7-------------------|----------------------|-----------------------|
----------------------|----------------------|-----------------------|


                                                 ^                     
  Q    Q    Q    Q       Q    Q    Q    E  E     Q     Q    Q    Q     
-------0----0---------|-----------------------|-----------------------|
--3-------------------|--2-----------------0--|--2-----3----3---------|
-----------------2----|-------2---------2-----|-----------------------|
------------2----L----|------------2----L-----|--4-----L----L----4----|
--4----L--------------|-----------------------|--2-----L----L---------|
----------------------|-----------------------|-----------------------|


                                                ^                    
  Q    Q    Q    Q       Q    Q    Q    Q       Q    Q    Q    Q     
----------------------|----------------------|-----------------0----|
----------------------|------------0----3----|--2----L----2---------|
--2----L----1---------|--2----L--------------|--2----2--------------|
-------2---------2----|-------2--------------|----------------------|
----------------------|--0----L--------------|--0----L--------------|
--0----L--------------|----------------------|----------------------|


                                                ^                    
  Q    Q    Q    Q       Q    Q    Q    Q       Q    Q    Q    Q     
--2----L--------------|-----------------2----|--0----L--------------|
--3----L----5----L----|----------------------|--0----L--------------|
--2----2---------2----|--2----1----2---------|------------2----1----|
--0---------4----L----|--0----L--------------|-------2--------------|
----------------------|----------------------|--4----L--------------|
----------------------|----------------------|----------------------|


                                   ^                                 
  Q    Q    Q    Q       Q    Q    Q    Q       Q    Q    Q    Q     
-----------------0----|----------------------|----------------------|
----------------------|--5----3----3----2----|--2----0----0----L----|
--2----1----2---------|------------2----L----|-----------------2----|
----------------------|--4----L--------------|------------2----L----|
--4----L--------------|--2----L----0----L----|----------------------|
----------------------|----------------------|--0----L--------------|


                                                ^                    
  Q    Q    Q    Q       Q    Q    Q    Q       Q    Q    Q    Q     
----------------------|-----------------0----|--2----L---------2----|
--0----2----2----L----|------------2---------|--1----L----1---------|
----------------------|-------2--------------|--2----2--------------|
-----------------2----|----------------------|--1----L--------------|
--0----L----0----L----|--0----L--------------|----------------------|
----------------------|----------------------|----------------------|


  ^                                                                   
  Q    Q    Q    Q       Q    Q    Q    E  E     Q    Q    Q    Q     
--4----4----4---------|-----------------------|--0----L--------------|
--4----L---------7----|--5----L---------2--3--|------------3----2----|
--5----L----5---------|------------6----------|-------3--------------|
--6----L--------------|-------6---------------|----------------------|
----------------------|--4----L---------------|----------------------|
----------------------|-----------------------|--2----L--------------|


                                                  ^                     
  Q    Q    Q    Q       Q    E  E  E  Q.         Q    Q     Q    Q     
------------0----L----|--2----L--4--L--5------|---9----L---------------|
--3----L--------------|-----------------------|--10----L----10---------|
----------------------|-------2-----2---------|---9----9----------9----|
-------4---------4----|--0----L---------------|------------------------|
--2---------0---------|-----------------------|------------------------|
----------------------|-----------------------|---0----L---------------|


  ^                                                                  
  W                   W                   E   E  E   E  E   E  Q     
--7----------------|--L----------------|----------------------------|
--9----------------|--L----------------|----------------3p--2--0----|
--7----------------|--L----------------|---------2h--4--------------|
-------------------|-------------------|--2h--4---------------------|
-------------------|-------------------|----------------------------|
--0----------------|--L----------------|----------------------------|


  ^                                               ^                    
  Q    Q    Q    Q       Q    Q    E  E  E  E     Q    Q    Q    Q     
----------------------|------------------------|-------0----0---------|
--0----2----2----L----|------------------0--2--|--0-------------------|
------------2----L----|--2----L-------2--------|------------1---------|
--2----L---------2----|-------2----------------|--2----L---------2----|
--0----L--------------|------------0--L--L--L--|--4----L--------------|
----------------------|------------------------|----------------------|


                           ^                                              
  Q    Q    E  E  E  E     Q    Q    Q    Q       Q    E.  S  E  E.  E.   
---------------0--2--4--|--4----5----5----L----|-------7---7h-9--7---5---|
--2---------------------|------------2----L----|--2----------------------|
------------------------|--2----L---------2----|-------------------------|
-------2----------------|----------------------|-------------------------|
------------------------|----------------------|-------------------------|
------------0--L--L--L--|--2----L--------------|-------------------------|


  Q    Q    Q    Q       Q    Q    Q    Q       Q    Q    Q    Q     
--4----L--------------|-------5----4---------|--0----2----2---------|
------------5---------|-----------------5----|------------3---------|
-------6---------6----|----------------------|--1----L---------2----|
----------------------|----------------------|--0----L--------------|
----------------------|--7-------------------|----------------------|
--0-------------------|----------------------|----------------------|


  Q    Q    Q    E  E     Q    Q    Q    Q       Q    Q    Q    E  E   
-----------------0-----|-------0----0---------|-----------------------|
--3-----------------3--|--3-------------------|--2-----------------0--|
-------2---------------|-----------------2----|-------2---------2-----|
------------0----L--L--|------------2----L----|------------2----L-----|
-----------------------|--4----L--------------|-----------------------|
-----------------------|----------------------|-----------------------|


  ^                                              ^                    
  Q     Q    Q    Q       Q    Q    Q    Q       Q    Q    Q    Q     
-----------------------|------------0---------|----------------------|
--2-----3----3---------|-----------------3----|--2----L--------------|
-----------------------|--2-------------------|--2----L----2---------|
--4-----L----L----4----|-------4--------------|--4----4---------4----|
--2-----L----L---------|----------------------|----------------------|
-----------------------|----------------------|--0----L--------------|


  Q    Q    Q    Q       Q    Q    Q    Q       Q    Q    E  E  E  E   
----------------------|----------------------|------------------------|
--0----L---------0----|--0----2----2----L----|------------------0--2--|
--1----L----2---------|------------2----L----|--2----L-------2--------|
-------2--------------|--2----L---------2----|-------2----------------|
----------------------|--0----L--------------|------------0--L--L--L--|
--0----L--------------|----------------------|------------------------|


                                                  ^                    
  Q    Q    Q    Q       Q    Q    E  E  E  E     Q    Q    Q    Q     
-------0----0---------|---------------0--2--4--|--4----5----5----L----|
--0-------------------|--2---------------------|------------2----L----|
------------1---------|------------------------|--2----L---------2----|
--2----L---------2----|-------2----------------|----------------------|
--4----L--------------|------------------------|----------------------|
----------------------|------------0--L--L--L--|--2----L--------------|


  Q    E.  S  E  E.  E.     Q    Q    Q    Q       Q    Q    Q    Q     
-------7---7h-9--7---5---|--4----L--------------|-------5----4---------|
--2----------------------|------------5---------|-----------------5----|
-------------------------|-------6---------6----|----------------------|
-------------------------|----------------------|----------------------|
-------------------------|----------------------|--7-------------------|
-------------------------|--0-------------------|----------------------|


  Q    Q    Q    Q       H.           E  E     Q    Q    Q    Q     
--0----2----2---------|---------------0-----|-------0----0---------|
------------3---------|--3---------------3--|--3-------------------|
--1----L---------2----|---------------------|-----------------2----|
--0----L--------------|---------------------|------------2----L----|
----------------------|---------------------|--4----L--------------|
----------------------|---------------------|----------------------|


                          ^                                            
  Q    Q    Q    E  E     Q     Q    Q    Q       Q    Q    Q    Q     
-----------------------|-----------------------|----------------------|
--2-----------------0--|--2-----3----3---------|----------------------|
-------2---------2-----|-----------------------|--2----L----1---------|
------------2----L-----|--4-----L----L----4----|-------2---------2----|
-----------------------|--2-----L----L---------|----------------------|
-----------------------|-----------------------|--0----L--------------|


                                               ^                     
  Q    Q    Q    Q       H        Q    Q       Q     Q    Q    Q     
----------------------|-----------7----9----|--9----10--------------|
------------2---------|---------------------|------------------7----|
--2----L--------------|---------------------|--7----------7---------|
-------2---------2----|---------------------|-----------------------|
--0----L--------------|--0------------------|-----------------------|
----------------------|---------------------|--7--------------------|


  Q    Q    Q    Q       W                  
--5---------4---------|-------------------||
----------------------|-------------------||
----------------------|-------------------||
-------6---------6----|--7----------------||
--7---------7---------|--7----------------||
----------------------|--5----------------||




Duration Legend
---------------
W - whole
H - half
Q - quarter
E - 8th
S - 16th
T - 32nd
X - 64th
. - note dotted


Tablature Legend
----------------
L - tied note - let the note ring
h - hammer on
p - pull off
^ - brush up


echo "Hello World!";

for - Charlene Mae -

Play until your fingers bleed!


Tap to rate this tab
# A B C D E F G H I J K L M N O P Q R S T U V W X Y Z