Song name
# A B C D E F G H I J K L M N O P Q R S T U V W X Y Z

Yiruma - Kiss The Rain tab

Kiss The Rain by Yiruma. First tab, apologies for mistakes. Standard tuning. Enjoy :)

PART 1

e|-------------0-0-------------------0------3-3-----------3-5-7-7-8-8--------|
B|------1-3-3------------1-----1-3------3------------0-----------------------|
G|--0-----------------0---------------------------0--------------------0-----|
D|------------------------------------------------------------------------8--|
A|---------------------------------------------------------------------------|
E|---------------------------------------------------------------------------|


e|--10-12-10-8-7---------8-7--3-3-5-5---------3-1-1-3-3------3---------0-0---|
B|-------------------0--------------------------------------------1-3--------|
G|----------------0---------------------0-2---------------0------------------|
D|---------------------------------------------------------------------------|
A|---------------------------------------------------------------------------|
E|---------------------------------------------------------------------------|

e|-1-1--3-1-0(hold)----------------------------------------------------------|
B|------------------3(hold)--------------------------------------------------|
G|---------------------------------------------------------------------------|
D|---------------------------------------------------------------------------|
A|---------------------------------------------------------------------------|
E|---------------------------------------------------------------------------|

PART 2

e|-------------0-0-------------------0------3-3-----------3-5-7-7-8-8--------|
B|------1-3-3------------1-----1-3------3------------0-----------------------|
G|--0-----------------0---------------------------0--------------------0-----|
D|------------------------------------------------------------------------8--|
A|---------------------------------------------------------------------------|
E|---------------------------------------------------------------------------|


e|--10-12-10-8-7---------8-7--3-3-5-5---------3-1-1-3-3------3---------0-0---|
B|-------------------0--------------------------------------------1-3--------|
G|----------------0---------------------0-2---------------0------------------|
D|---------------------------------------------------------------------------|
A|---------------------------------------------------------------------------|
E|---------------------------------------------------------------------------|

e|-1-1-------------------------------------------------------------------------|
B|------------1-0-1(hold)------------------------------------------------------|
G|---------0-------------------------------------------------------------------|
D|-----------------------------------------------------------------------------|
A|-----------------------------------------------------------------------------|
E|-----------------------------------------------------------------------------|
-|


PART 3

e|----0-3-5-----------5-3----------3-3-1-1-0-0-------------0---------0-3-5---|
B|-1----------1-0-1---------1-0-1---------------3-3---1-3---------1----------|
G|---------------------------------------------------------------------------|
D|---------------------------------------------------------------------------|
A|---------------------------------------------------------------------------|
E|---------------------------------------------------------------------------|
              (fast)
e|-8-7-5-3----0-1-3----1-0-1--3-5-7-8-12(hold)--10(hold)---------------------|
B|---------------------------------------------------------------------------|
G|---------------------------------------------------------------------------|
D|---------------------------------------------------------------------------|
A|---------------------------------------------------------------------------|
E|---------------------------------------------------------------------------|


PART 1 REPEAT

e|-------------0-0-------------------0------3-3-----------3-5-7-7-8-8--------|
B|------1-3-3------------1-----1-3------3------------0-----------------------|
G|--0-----------------0---------------------------0--------------------0-----|
D|------------------------------------------------------------------------8--|
A|---------------------------------------------------------------------------|
E|---------------------------------------------------------------------------|


e|--10-12-10-8-7---------8-7--3-3-5-5---------3-1-1-3-3------3---------0-0---|
B|-------------------0--------------------------------------------1-3--------|
G|----------------0---------------------0-2---------------0------------------|
D|---------------------------------------------------------------------------|
A|---------------------------------------------------------------------------|
E|---------------------------------------------------------------------------|

e|-1-1--3-1-0(hold)----------------------------------------------------------|
B|------------------3(hold)--------------------------------------------------|
G|---------------------------------------------------------------------------|
D|---------------------------------------------------------------------------|
A|---------------------------------------------------------------------------|



PART 2 REPEAT

e|-------------0-0-------------------0------3-3-----------3-5-7-7-8-8--------|
B|------1-3-3------------1-----1-3------3------------0-----------------------|
G|--0-----------------0---------------------------0--------------------0-----|
D|------------------------------------------------------------------------8--|
A|---------------------------------------------------------------------------|
E|---------------------------------------------------------------------------|


e|--10-12-10-8-7---------8-7--3-3-5-5---------3-1-1-3-3------3---------0-0---|
B|-------------------0--------------------------------------------1-3--------|
G|----------------0---------------------0-2---------------0------------------|
D|---------------------------------------------------------------------------|
A|---------------------------------------------------------------------------|
E|---------------------------------------------------------------------------|

e|-1-1-------------------------------------------------------------------------|
B|------------1-0-1(hold)------------------------------------------------------|
G|---------0-------------------------------------------------------------------|
D|-----------------------------------------------------------------------------|
A|-----------------------------------------------------------------------------|
E|-----------------------------------------------------------------------------|
-|
Tap to rate this tab
# A B C D E F G H I J K L M N O P Q R S T U V W X Y Z