Song name
# A B C D E F G H I J K L M N O P Q R S T U V W X Y Z

Yiruma - Kiss The Rain tab

                                   Kiss the Rain - Yiruma
                                 Transposed by Nicholas Tan

CAPO 1

< = Repeat from ">" then continue onwards
h = hammer on/slide
p = pull off
S = strum chord
Harmonic: Don't press on the frets, just touch the strings then let go after plucking.

VERSE

   + 4 +    1 + 2 + 3 + 4 e + a   1 + 2 + 3 + 4 e + a   1 + 2 + 3 +   4 + a
                                                        S   S
E|-------|>---------------------|-----------------0h2-|-2-3-3-----5-5h7-5-3--|
B|-------|>---0-0-----0-------0-|---3-3-----3---3-----|-0---0---0------------|
G|---0h2-|>-2---2---0-0---0h2---|-2-2-2-----2---------|-0---0-0--------------|
D|-0-----|>---0---0-----0-------|---0-----0---0-------|-2---2----------------|
A|-------|>---------------------|-2-2---2-------------|----------------------|
E|-------|>-3-------------------|---------------------|----------------------|

   1 + 2 + 3 + 4 +   1 + 2 + 3 + 4 e + a   1 + 2 + 3 + 4 e + a   1 + 2 + 3 + 4 e +
   S                 S                     S
E|-2---------3p2---|---0-0-----0---0-----|---------------------|-------------------|
B|-3---3---------3-|-3-3-3-----3-----3p1-|-1-3-3-----3-------0-|-0h1---------3---1-|
G|-2---2-----------|-0-------0-----------|-0---0---0-0---0h2---|-------0-----0---0-|
D|-4-4---4---------|-2-----2-----2-------|-0---0-0-----0-------|-----2---------2---|
A|-2-------2-------|-3-------------------|-2-2-----------------|-0-------3-3-------|
E|-----------------|---------------------|-3-------------------|-------------------|

   1 + 2 + 3 + 4 +   1 + 2 + 3 + 4 e + a    1 + 2 + 3 + 4 e + a   1 + 2 + 3 +   4 + a
                                                                  S   S
E|-----------------|----------------------|-----------------0h2-|-2-3-3-----5-5h7-5-3--|
B|-0-----0-3-------|---0-0------0-------0-|---3-3-----3---3-----|-0---0---0------------|
G|-0---0---2---0h2-|-2---2---0--0---0h2---|-2-2-2-----2---------|-0---0-0--------------|
D|-2-2-----0-0-----|---0---0------0-------|---0-----0---0-------|-2---2----------------|
A|-----------------|----------------------|-2-2---2-------------|----------------------|
E|-----------------|-3--------------------|---------------------|----------------------|

   1 + 2 + 3 + 4 +   1 + 2 + 3 + 4 e + a   1 + 2 + 3 + 4 e + a   1 + 2 + 3 + 4 +
   S                 S                     S                             S
E|-2---------3p2---|---0-0-----0---0-----|---------------------|---------0-------|
B|-3---3---------3-|-3-3-3-----3-----3p1-|-1-3-3-----3-------0-|-0h1-----1-------|
G|-2---2-----------|-0-------0-----------|-0---0---0-0---0h2---|-------0-0-------|
D|-4-4---4---------|-2-----2-----2-------|-0---0-0-----0-------|-----2---2---4---|
A|-2-------2-------|-3-------------------|-2-2-----------------|-0-------3---5---|
E|-----------------|---------------------|-3-------------------|---------3-------|

CHORUS

   1 + 2 + 3 + 4 +   1 + 2 + 3 + 4 +   1 + 2 + 3 + 4 +   1 + 2 + 3 a 4 +   1 + 2 + 3 + 4 +
   S       S         S                 S                 S       S         S
E|-3---------------|-0-------------0-|-----------------|-----------------|------------------|
B|-0-----1-0---0h3-|-1---3---1-------|-3-----3-------3-|-3-1-1-0-0-------|---0-0-------0-3--|
G|-0-0-2---0-0-----|-0---0---0---0---|-0---0-------0---|-0---0---2-2-2-0-|-2-2-------0------|
D|-0-------0-------|-2-2---2---4-----|-0-0-------0-----|-2-------0-------|-0-------0--------|
A|-2-------2-------|-3---------------|-2-------2-------|-0-------0-------|-2-----2----------|
E|-3-------3-------|-----------------|-3---------------|-----------------|-3----------------|

   1 + 2 + 3 + 4 +   1 + 2 + a 3 + a e +   1 + 2 + 3 + 4 +   1 + 2 e + a 3 + 4 e + a
   S                 S                                       S           S
E|-0---------2-2-0-|-2-------------------|---------0---2-3-|-7---------7-5-----------<-|
B|-1---------------|-3-----0-1-3---1---0-|-1---3-----------|-8-------8---7-----------<-|
G|-0---0-----------|-2---2-----0---0---0-|-0---------------|-7-7---7-----7-------0h2-<-|
D|-2-2---2---------|-4-4---------2---0---|---2---4---5-----|---------------0-0h2-----<-|
A|-3-------4-------|-2---------0---------|-0---2---4-------|-------------------------<-|
E|-----------------|-2-------------------|-----------------|-------------------------<-|

VERSE:

   1 + 2 + 3 + 4 e + a   1 + 2 + 3 + 4 e + a   1 + 2 + 3 +   4 + a
                                               S   S
E|---------------------|-----------------0h2-|-2-3-3-----5-5h7-5-3--|
B|---0-0-----0-------0-|---3-3-----3---3-----|-3---0---0------------|
G|-2---2---0-0---0h2---|-2-2-2-----2---------|-0---0-0--------------|
D|---0---0-----0-------|---0-----0---0-------|-2---2----------------|
A|---------------------|-2-2---2-------------|----------------------|
E|-3-------------------|---------------------|----------------------|

   1 + 2 + 3 + 4 +   1 + 2 + 3 + 4 e + a   1 + 2 + 3 + 4 e + a   1 + 2 + 3 + 4 e +
   S                 S                     S
E|-2---------3p2---|---0-0-----0---0-----|---------------------|-------------------|
B|-3---3---------3-|-3-3-3-----3-----3p1-|-1-3-3-----3-------0-|-0h1---------3---1-|
G|-2---2-----------|-0-------0-----------|-0---0---0-0---0h2---|-------0-----0---0-|
D|-4-4---4---------|-2-----2-----2-------|-0---0-0-----0-------|-----2---------2---|
A|-2-------2-------|-3-------------------|-2-2-----------------|-0-------3-3-------|
E|-----------------|---------------------|-3-------------------|-------------------|

   1 + 2 + 3 + 4 +   1 + 2 + 3 + 4 e + a    1 + 2 + 3 + 4 e + a   1 + 2 + 3 +   4 + a
                                                                  S   S
E|-----------------|----------------------|-----------------0h2-|-2-3-3-----5-5h7-5-3--|
B|-0-----0-3-------|---0-0------0-------0-|---3-3-----3---3-----|-3---0---0------------|
G|-0---0---2---0h2-|-2---2---0--0---0h2---|-2-2-2-----2---------|-0---0-0--------------|
D|-2-2-----0-0-----|---0---0------0-------|---0-----0---0-------|-2---2----------------|
A|-----------------|----------------------|-2-2---2-------------|----------------------|
E|-----------------|-3--------------------|---------------------|----------------------|

   1 + 2 + 3 + 4 +   1 + 2 + 3 + 4 e + a   1 + 2 + 3 + 4 e + a   1 + 2 + 3 + 4 +
   S                 S                     S                             S
E|-2---------3p2---|---0-0-----0---0-----|---------------------|---------0-------|
B|-3---3---------3-|-3-3-3-----3-----3p1-|-1-3-3-----3-------0-|-0h1-----1-------|
G|-2---2-----------|-0-------0-----------|-0---0---0-----0h2---|-------0-0-------|
D|-4-4---4---------|-2-----2-----2-------|-0---0-0-----0-------|-----2---2---4---|
A|-2-------2-------|-3-------------------|-2-2-----------------|-0-------3---5---|
E|-----------------|---------------------|-3-------------------|---------3-------|

   1 + 2 + 3 + 4 +   1 + 2 + 3 + 4 +   1 +   2 + 3 + 4 +   1 + 2 + 3 + 4 +
     ritardando      S       S   S     S         HARMONIC~~~~~~~~~~~~~~~~~~
E|-3-----------5-7-|-7h8-----5---5---|-7---4h5-8---------|-----------------|
B|-0-------0-------|-5---5-8-8---7---|-8---------12------|-----------------|
G|-0-----0---0-----|-5-------5---5---|-7-7-------12------|-----------------|
D|-0---0-----------|-5-------7---7---|-----------12------|-----------------|
A|-2-2-------------|-7-------5---5---|-------------------|-----------------|
E|-3---------------|-5-------5---5---|-------------------|-----------------|


Contact me at nicholastyr@gmail.com with any questions/suggestions!
Tap to rate this tab
# A B C D E F G H I J K L M N O P Q R S T U V W X Y Z