Song name
# A B C D E F G H I J K L M N O P Q R S T U V W X Y Z

Yiruma - Kiss The Rain tab

kiss the rain


e|---------------------------------------------------------------------0--2-----|
B|---------------------0--0------------------0-------3---3------------3---------|
G|----------0--2----2--2---------2---0--2------2---2-----------2----------------|
D|--------0------------------0-------------------------------0------------------|
A|--------------------------------------------2---------------------------------|
E|------------------3-----------------------------------------------------------|

e|---2---3---3-----5/7\5\3--2------------3--2-----------0-0----------------|
B|----------------------------------3---0--------3---3--------------3---1--|
G|---0--------------------------4-----4--------------0-----------0---------|
D|-----------2--------------------------0--------------------2-------------|
A|---------------------------2-----------------------3---------------------|
E|-------------------------------------------------------------------------|

e|----------------------------------------------------------------------|
B|---1---3--3------0-----0--2---0---1--1-----0-----3---1---0------0-----|
G|---0------0-------------------0---0--0-----------0-------0----0----2--|
D|----------0--0--------------------------2-----2----------0--0------0--|
A|---2------------------------------------------------------------------|
E|----------------------------------------------------------------------|

e|---------------------------------------------------------------------0--2-----|
B|---------------------0--0------------------0-------3---3------------3---------|
G|----------0--2----2--2---------2---0--2------2---2----------------------------|
D|--------0------------------0--------------------------------2-----------------|
A|----------------------------------------------2-----------0-------------------|
E|------------------3-----------------------------------------------------------|

e|---2---3---3-----5/7\5\3--2-----------3---2-----------0-0---------------|
B|----------------------------------3-----------3---3--------------3---1--|
G|---0--------------------------4------------------------------0----------|
D|-----------2----------------------------------------------2-------------|
A|---------------------------2----------------------3---------------------|
E|------------------------------------------------------------------------|

e|-------------------------------------------------------------------------|
B|---1---3--3------0-----0--2---0---1-------0-----3---1---0------0---------|
G|---0------0-------------------0---0-------------0-------0----0----2------|
D|----------0--0--------------------------2-----2---------0---0-----0---0--|
A|------------------------------0------------------------------------------|
E|-------------------------------------------------------------------------|

e|---------------------------------------------------------------------0--2-----|
B|---------------------0--0------------------0-------3---3------------3---------|
G|----------0--2----2--2---------2---0--2------2---2----------------------------|
D|--------0------------------0--------------------------------2-----------------|
A|-------------------------------------------------------0----------------------|
E|------------------3-----------------------------------------------------------|

e|---2---3---3-----5-7-5--3--2-----------3---2---------0-0----------------|
B|----------------------------------3-----------3---3--------------3---1--|
G|---0--------------------------4------------------------------0----------|
D|-----------2----------------------------------------------2-------------|
A|---------------------------2----------------------3---------------------|
E|------------------------------------------------------------------------|

e|--------------------------------------------------------------------------------------|
B|---1---3--3------0-----0--2---0---1---------------------------------0---3-------------|
G|---0------0-------------------0---0-------0--------0-------------0--------------------|
D|----------0--0--------------------------2-0--0--4-----0-----0-------------------------|
A|---2---------------------------0-------------------------2----------------------------|
E|---------------------------------------------------3-----------3----------------------|



e|---0-----------------------0----------------------------------------------------------|
B|---------3---------------------3--------3-----------3----3---1---1--0--0--------------|
G|------0------0-------0---------2-----2------0------------4----------------------------|
D|------------------4---------------0-----------0--4-----------2---2--0-----------------|
A|---3---------------------------2-------------------------3----------------------------|
E|--------------------------------------------------------------------------------------|

e|---------------------------------------0--------------2--2----0----------------------|
B|-----------------0--0-----------0--3---------2-----2---------------------------------|
G|---2---2--0--2----------------0-----------0-----0--3---------------------------------|
D|----------0--0---------0-------------------------------------------------------------|
A|---------------------------------------4---------------------------------------------|
E|-------------3------------3------------------------0---------------------------------|

e|-----------------------------------------0------0------2-----3-----------------------|
B|---3-------0-1-3---1--0----1-------3-------------------------------------------------|
G|--------0-----------------------------0------0------0--------------------------------|
D|-----0-------------------------2-----------------------------------------------------|
A|---2-------------------------------------3------3---------2--------------------------|
E|---------------0-----------0---------------------------------------------------------|

e|-----7------------5-------------------7---7----------------------7--|
B|-----------8-------------8--10---10-------------8-----7--8---10-----|
G|--------7------7------7-----------------------0---0-----------------|
D|-----0------------0-------------------------------------------------|
A|---------------------------------10---------------------------------|
E|--------------------------------------------------------------------|


e|---------10--10-----------------------------------------------------|
B|----10------------------------7---7---8--8---------10---12--10---8--|
G|-------------------7-----7-9----------------0-----------12--12---9--|
D|-----------------7--------------------------------------------------|
A|--------------------------------------------------------------------|
E|-----7----------------------------0---------------------------------|


e|--------------------3---2-----------0--0----------------------------------------------|
B|----7-----7----------------3----3---------------3----1---1---3---3--------------------|
G|----7--7-----7---0------------------------0--------------0----------------------------|
D|----0----------------------------------------2----------------------------------------|
A|--------------------------------3------------------------2----------------------------|
E|--------------------------------------------------------------------------------------|


e|------------------------------------------4--------------------------|
B|-------------3--------0--1--1-------------2--------------------------|
G|----------0-----0--2--0--0--0---0---------1--1----1--0-----1--3---3--|
D|------0-----------------------2-----2--4--1----3--------1------------|
A|---2------------------0----------------------------------------------|
E|------------------------------------------------------------------4--|

e|-------------------------------------------------------3----3---4--4----------------|
B|---1---1--------------------1--------4--4--------4--6-------------------------------|
G|--------------1------1--3---------3--------3----------------------------------------|
D|----------1------1------------------------------------------3-----------------------|
A|----------------------------------3-----------3-------------------------------------|
E|------------------------------------------------------------------------------------|

e|------------6---8---6----------------------------------------------------------------|
B|------------------------9----8--------------9---8---4--4----6---6--------------------|
G|------5----------------------------8-------------------------------------------------|
D|---------3-----------------------8----8-----10--8---5--------------------------------|
A|----------------6------------6-------------------------4-----------------------------|
E|-------------------------------------------------------------------------------------|

e|---------------------------------------------------------------------------|
B|----------------------------------4----------1--2-------1------------------|
G|---0-------8--6---6--8--8---0--------1---3-----------1--3----5-------------|
D|------6-----------8------------6------------------3-----1---------6-----8--|
A|---------------------------------------------1-----------------------6-----|
E|------------------8-----------------------------------------------4--------|

e|-------------------------------------------4---6\8--------------------------------|
B|---------------1---1---2----------------------------------------------------------|
G|-----6--5---3-----------------1-------6-------------------------------------------|
D|--------------------------3---3---5---6-------------------------------------------|
A|-------------------1------1---1-------4-------------------------------------------|
E|-------------------------------------------4---6\8--------------------------------|

| /   slide up
| \   slide down
Tap to rate this tab
# A B C D E F G H I J K L M N O P Q R S T U V W X Y Z