Song name
# A B C D E F G H I J K L M N O P Q R S T U V W X Y Z

Yiruma - River Flows In You tab

River Flows In You - Yiruma 
(By Sound,NOT accurate)
-Not In Order Either LOL-

E||---5--4--5--4--5-----5-----|---5--5--7--5--4--5-------| 
B||------------------5----2-3-|----------------------7---|
G||---------------------------|--------------------------|
D||---------------------------|--------------------------|
A||---------------------------|--------------------------|
e||---------------------------|--------------------------|

E||---5--5--7--5--4--5-------|---5--5--7--9--10--12--10--9--7--5-| 
B||----------------------7---|-----------------------------------|
G||--------------------------|-----------------------------------|
D||--------------------------|-----------------------------------|
A||--------------------------|-----------------------------------|
e||--------------------------|-----------------------------------|

E||---5--5--7--5--4--5-------|---5--5--7--5--4--5-------|
B||----------------------7---|----------------------7---|
G||--------------------------|--------------------------|
D||--------------------------|--------------------------|
A||--------------------------|--------------------------|
e||--------------------------|--------------------------|

E||---5--4--5--4--5-----5-----|
B||------------------5----2-3-|
G||---------------------------|
D||---------------------------|
A||---------------------------|
e||---------------------------| 

[End?]
Tap to rate this tab
 
# A B C D E F G H I J K L M N O P Q R S T U V W X Y Z