Ylam Productions - Love Aviation chords

Highlighted       Show chord diagrams
-------------------------------------------------------------------------------
                        LOVE AVIATION - YLAM PRODUCTIONS
-------------------------------------------------------------------------------
First Submitted: August 7th 2010

Tabbed by: Wayne S
Tuning: Standard EADGBE

Capo: 0

Chords:

C: 032010 or 335553
G: 320033 or 355433
Am: 002210 or 577555
Em: 022000
F: 133211
D: x00232 or 557775
A: 002220 or 577655
Bm: 224432
F#m: 244222

In the intro, the full chord actually seems to be played, which isn't really 
possible with a single guitar.

If you have two guitars, then you should play each bass note as follows:

[Guitar 2] - bass notes:

    C     G    Am    Em     F     C     F     G
e|-----|-----|-----|-----|-----|-----|-----|-----|
B|---1-|---0-|-----|-----|-----|-----|-----|-----|
G|--0--|--0--|---2-|---0-|-----|-----|-----|---0-|
D|-----|-----|--2--|--0--|---3-|---2-|---3-|--0--|
A|-3---|-2---|-0---|-----|--3--|--3--|--3--|-----|
E|-----|-----|-----|-3---|-1---|-0---|-1---|-3---|

- First note of each chord is played when the first bass note of each chord is 
played with Guitar 1
- Need some visual reference? In the intro, the chord name aligns with the first 
bass note of each chord (C, G, Am, Em F, etc.)
- Numbers are more so intended as vocal cues
- Chord names are just cues for when the chord is started, and for guitar 2 to be 
able to play in tandem with guitar 1
- With two guitars, you could probably omit the bass note from guitar 1 (no need 
to play low E and A strings)

[Last verse - up one key] bass notes:

    D     A     Bm   F#m    G     D     G     A
e|-----|-----|-----|-----|-----|-----|-----|-----|
B|---3-|---2-|-----|-----|-----|-----|-----|-----|
G|--2--|--2--|---4-|---2-|---0-|-----|---0-|---2-|
D|-0---|-----|--4--|--2--|--0--|---4-|--0--|--2--|
A|-----|-4---|-2---|-0---|-----|--5--|-----|-0---|
E|-----|-----|-----|-----|-3---|-2---|-3---|-----|

Please leave any comments/ratings/corrections/suggestions.

[Intro] x2:

  C               G               Am              Em              F    
e|------------------------------------------------------------1-0-----0------|
B|1---3---1---3---1---3---1---3---1---3---1---3---1---3---1-------1-------1--|
G|--0---0---0---0---0---0---0---0---0---0---0---0---0---0---0-------0---0---0|
D|---------------------------------------------------------------------------|
A|3---------------2---------------0------------------------------------------|
E|------------------------------------------------3---------------1----------|
     [1]         [2]               [3]           [4]               [5]

       C               F               G
e|-0-------------------------------------------------------------------------|
B|-----1---3---1---3---1-------1-------3-1---1-3-1---1-----------------------|
G|---0---0---0---0---0---0---0---0---0-----0-------0-------------------------|
D|-------------------------3-------3-----------------------------------------|
A|---------------------------------------------------------------------------|
E|-----0---------------1---------------3-------------------------------------|
      [6]             [7]             [8]

[Verse]:

[1]        [2]
Woke up 4 o'clock this morning
[3]                       [4]
Didn't sleep well but it's time to get working
[5]                  [6]
I tell myself I gotta keep on moving
        [7]                  [8]
But it's getting a little frustrating
(Whoa whoa)

[Hook]:

  C
I got on my jet plane
    G
I'm gonna fly away
        Am
From my sorrows today
Em
Keep them away
        F
But I can't stop thinking of you
C
  I miss you
F               G
What am I gonna do?

[Pre-Chorus]:

C
  I took a look outside
    G
Can anybody tell me why?
Am                          Em
  I see the sun is high and birds are flying in the sky
F                              C
  But it seems it's raining in me
(C)                   (F)
And it feels so cold
F
  I can hear the thunder shouting
G
  I can see a storm is coming

[Chorus]:

C             G
  I'm a pilot flying through a storm now
Am             Em
  Took off and there's no turning back now
   F                   C
My planes on fire, the engines are dying
    F                 G
Can anybody out there catch me Im falling
C                   G
  Was heading to my destination
Am                     Em
  Now I'm in this terrible situation
F            C             F
I can see it coming, crash-landing
   G                  C
Oh this is my love aviation

[Repeat Hook]

[Repeat Pre-Chorus]

[Repeat Chorus]



---------------------------------------------------------------------------------

[This is still part of the song. This is the end part which goes up one key. 
Either you could put a capo on 2nd fret and continue with the previous chords, or 
continue with no capo and play as follows]

D             A
  I'm a pilot flying through a storm now
Bm             F#m
  Took off and there's no turning back now
   G                   D
My planes on fire, the engines are dying
    G                 A
Can anybody out there catch me I'm falling
D                   A
  Was heading to my destination
Bm                     F#m
  Now I'm in this terrible situation
G            D             G
I can see it coming, crash-landing
   A                  D
Oh this is my love aviation

  D               A               Bm             F#m              G    
e|----0-------0-------0-------0-------0-------0-------0-------3-2-----2------|
B|3-------3-------3-------3-------3-------3-------3-------3-------3-------3--|
G|--2---2---2---2---2---2---2---2---2---2---2---2---2---2---2-------2---2---2|
D|0--------------------------------------------------------------------------|
A|----------------4---------------2---------------0--------------------------|
E|----------------------------------------------------------------3----------|
 [1]             [2]                 [3]         [4]             [5]

       D               G               A
e|-2-------0-------0-------------------0-------------------------------------|
B|-----3-------3-------3-------3---------------------------------------------|
G|---2---2---2---2---2---2-0-2---2-0-2---------------------------------------|
D|---------------------------------------------------------------------------|
A|-------------------------------------0-------------------------------------|
E|-----2---------------3-----------------------------------------------------|

      [6]             [7]             [8]

[1]        [2]
I'm a pilot flying through a storm now
[3]          [4]
Took off and there's no turning back now
  [5]                 [6]
My planes on fire, the engines are dying
   [7]                [8]                  D
Can anybody out there catch me I'm....
Tap to rate this tab
 
# A B C D E F G H I J K L M N O P Q R S T U V W X Y Z