Song name
# A B C D E F G H I J K L M N O P Q R S T U V W X Y Z

Ylvis - The Fox tab

Title: The Fox
Artist: Ylvis

|------------19-16-|------------16----|
|-14--17-19--------|-14--17-19-----14-|
|------------------|------------------|
|------------------|------------------|
|------------------|------------------|
|------------------|------------------|

Transcribed By: Brian Earl Haines

|------------19-16-|--------------------|
|-14--17-19--------|-14--14-17-16-12-14-|
|------------------|--------------------|
|------------------|--------------------|
|------------------|--------------------|
|------------------|--------------------|
Tap to rate this tab
# A B C D E F G H I J K L M N O P Q R S T U V W X Y Z