Song name
# A B C D E F G H I J K L M N O P Q R S T U V W X Y Z

Ylvis - The Fox tab

Song         : The Fox
Artist       : Ylvis

Transcribe by: Paul Dingal


|--------------19-16------||--------14-----16---------||-----------19-16------|
|--------17-19------------||-----17-------------------||-----17-19------------|
|---16-18-----------------||--16--------------18------||--18------------------|
|-------------------------||--------------------------||----------------------|
|-------------------------||--------------------------||----------------------|
|-------------------------||--------------------------||----------------------|

|-------------------------|
|---------17--------------|
|--18--18----18--16-18----|
|-------------------------|
|-------------------------|
|-------------------------|
Tap to rate this tab
 
# A B C D E F G H I J K L M N O P Q R S T U V W X Y Z