Song name
# A B C D E F G H I J K L M N O P Q R S T U V W X Y Z

Yngwie Malmsteen - Fuguetta tab

#----------------------------------PLEASE NOTE---------------------------------#
#This file is the author's own work and represents their interpretation of the #
#song. You may only use this file for private study, scholarship, or research. #
#------------------------------------------------------------------------------#

FUGUETTA
As recorded by Yngwie Malmsteen
(From the 2005 Album UNLEASH THE FURY)

Transcribed by Matthew Fitzpatrick
	

Music by Yngwie Malmsteen
Arranged by Yngwie Malmsteen

Gtr I (Eb Ab Db Gb Bb Eb) - 'Classical Guitar 1'
Gtr II (Eb Ab Db Gb Bb Eb) - 'Classical Guitar 2'

  Q=110
 4/4
  Gtr I
  ~~~~~~~~~~~
  Q   Q   Q.    T  T  S   E  E  E E E  E Q
|-----------------------|-------------------|
|----12-----------------|-------------------|
|-9------12----11h12p11-|-9-12-11-9-8-11----|
|-----------------------|----------------9--|
|-----------------------|-------------------|
|-----------------------|-------------------|


  E E  E E  E  T  T  T T  E E   E S S  E S  S  E  T  T  T T  S S  S  S
|-----------------------------|------------------------------------------|
|-----------------------------|----------------------------------12-10---|
|-9---11---12-11h12p11-9-11---|-9---9-11---11-12-11h12p11-9-11-9---------|
|---9----9------------------9-|---9------9-------------------------------|
|-----------------------------|------------------------------------------|
|-----------------------------|------------------------------------------|


   S  S S  S  S S S  S S S S  S  S  S  S  S
|-------------------------------------------||
|----------------------------------10-12-14-||
|-12-11-9-12-11-9-8-11-9---9-11-12----------||
|------------------------9------------------||
|-------------------------------------------||
|-------------------------------------------||
|
| Gtr II
|  W
|-------------------------------------------||
|-------------------------------------------||
|-------------------------------------------||
|-------------------------------------------||
|-------------------------------------------||
|-------------------------------------------||


   S  S  S  S  S  S  S  S  E   E  E  E          E  S  S  Q         S  S  S  S  S  S  S  S
|--------------------------------------------|--------------------------------------------|
|-15-14-12-15-14-12-11-14-12-----12-14-------|-15-15-17-17tr19----19-17-19-20-19-17-15----|
|-----------------------------11-------------|-----------------------------------------18-|
|--------------------------------------------|--------------------------------------------|
|--------------------------------------------|--------------------------------------------|
|--------------------------------------------|--------------------------------------------|
|
|  ~~~~~~~~~~~~~~~~~~~~~~~~~~~
|  Q           Q           Q.        T  T  S    E  E     E      E  E     E     Q
|--------------------------------------------|--------------------------------------------|
|-------------19-----------------------------|--------------------------------------------|
|-16----------------------19--------18h19p18-|-16-19----18-----16-15----18----------------|
|--------------------------------------------|--------------------------------16----------|
|--------------------------------------------|--------------------------------------------|
|--------------------------------------------|--------------------------------------------|


   S  S  S  S  S  S  S  S  S  S  S  S  S  S  S  S    S  S  S  S  S  S  S  S  S  S  S  S  E  S  S
|-------------------------------------------------|----------------------------------------------|
|-15-19-17-19-14-19-17-19-15-19-17-19-14-19-17-19-|-15----------17----------19----------17-19-17-|
|-------------------------------------------------|----16-15-16----16-15-16----16-15-16----------|
|-------------------------------------------------|----------------------------------------------|
|-------------------------------------------------|----------------------------------------------|
|-------------------------------------------------|----------------------------------------------|
|
|  E     E     E     E     E     S  S  E     E       E     E     E     E     E     S  S  E  S  S
|-------------------------------------------------|----------------------------------------------|
|-------------------------------------------------|----------------------------------------------|
|-16----------18----------19----18-16-18----------|-16----------18----------19----18-16-18-19-18-|
|-------16----------16----------------------16----|-------16----------16-------------------------|
|-------------------------------------------------|----------------------------------------------|
|-------------------------------------------------|----------------------------------------------|


                                             ~~~~~~~~~~
   S  S  S  S  S  S  S  S  E      E  E  E    Q   Q   Q  Q
|-----------------------------------------|----------------|
|-15--------------------------------------|----------------|
|----18-16-19-18-16-15-18-16--------------|----------------|
|--------------------------------17-16-14-|----------------|
|-----------------------------------------|-17--16--14-----|
|-----------------------------------------|----------------|
|
|                                            ~~~~~~~~~~
|  S  S  S  S  S  S  S  S  H                 Q   Q   Q  Q
|-----------------------------------------|----------------|
|-----------------------------------------|----------------|
|-16-------16-----------------------------|----------------|
|----19-17----19-17-16-17-16tr17----------|-16--14--12-----|
|-----------------------------------------|----------------|
|-----------------------------------------|----------------|


   ~~~~~~~~~~~~~~~~~~~~~~~~
   Q          Q         Q.      T  T  S    E  E     E     E  E     E     Q
|---------------------------------------|-------------------------------------------|
|------------12-------------------------|-------------------------------------------|
|--9-------------------12------11h12p11-|--9-12----11-----9--8----11----------------|
|---------------------------------------|--------------------------------9----------|
|---------------------------------------|-------------------------------------------|
|---------------------------------------|-------------------------------------------|
|
|  S  S S  S  S S S  S  E  E E  E          E  S  S  Q        S  S  S  S  S  S  S  S
|---------------------------------------|-------------------------------------------|
|---------------------------------------|-------------------------------------------|
|-12-11-9-12-11-9-8-11--9----9-11-------|-12-12-14-14tr16---16-14-16-17-16-14-------|
|--------------------------9------------|-------------------------------------17-16-|
|---------------------------------------|-------------------------------------------|
|---------------------------------------|-------------------------------------------|


   E     E     E     E     E     T  T  T T  E     E
|------------------------------------------------------|
|------------------------------------------------------|
|--9----------11----------12----11h12p11-9-11----------|
|--------9-----------9----------------------------9----|
|------------------------------------------------------|
|------------------------------------------------------|
|
|  S  S  S  S  S  S  S  S  S  S  S     S    S  S  S  S
|------------------------------------------------------|
|------------------------------------------------------|
|-12-16-14-16-11-16-14-16-12-16-14----16---11-16-14-16-|
|------------------------------------------------------|
|------------------------------------------------------|
|------------------------------------------------------|


   E     S  S  E     S  S  E     T  T  T T  S S  S  S
|-----------------------------------------------------|
|-----------------------------------------------12-10-|
|--9--------9-11-------11-12----11h12p11-9-11-9-------|
|--------9-----------9--------------------------------|
|-----------------------------------------------------|
|-----------------------------------------------------|
|
|  S  S  S  S  S  S  S  S  S  S  S     S    E    S  S
|-----------------------------------------------------|
|-----------------------------------------------------|
|-12----------14----------16---------------14---16-14-|
|----14-13-14----14-13-14----14-13----14--------------|
|-----------------------------------------------------|
|-----------------------------------------------------|


   S  S  S  S  S  S  S  S  S  S  S  S  S  S  S  S     S  S  S  S  S  S  S  S  E   E  E  E
|-------------------------------------------------||--------------------------------------------|
|----------------------------------------10-12-14-||-15-14-12-15-14-12-11-14-12-----12-14-------|
|-12-11--9-12-11--9--8-11--9-----9-11-12----------||-----------------------------11-------------|
|-----------------------------9-------------------||--------------------------------------------|
|-------------------------------------------------||--------------------------------------------|
|-------------------------------------------------||--------------------------------------------|
|
|                                                     ~~~~~~~~~~~~~~~~~~~~~~~~~~~
|  S  S  S  S  S  S  S  S  S  S  S  S  S  S  S  S     Q           Q           Q.        T  T  S
|-------------------------------------------------||--------------------------------------------|
|-------------------------------------------------||-------------19-----------------------------|
|-12-------------------------------------14-16-18-||-16----------------------19--------18h19p18-|
|----16-14-17-16-14-13-16-14----14-16-17----------||--------------------------------------------|
|----------------------------14-------------------||--------------------------------------------|
|-------------------------------------------------||--------------------------------------------|


   E  S  S  Q         S  S  S  S  S  S  S  S    S  S  S  S  S  S  S  S  S  S  S  S  S  S  S  S
|--------------------------------------------|-------------------------------------------------|
|-15-15-17-17tr19----19-17-19-20-19-17-15----|-15-19-17-19-14-19-17-19-15-19-17-19-14-19-17-19-|
|-----------------------------------------18-|-------------------------------------------------|
|--------------------------------------------|-------------------------------------------------|
|--------------------------------------------|-------------------------------------------------|
|--------------------------------------------|-------------------------------------------------|
|
|  E  E     E      E  E     E     Q             E     E     E     E     E     S  S  E     E
|--------------------------------------------|-------------------------------------------------|
|--------------------------------------------|-------------------------------------------------|
|-16-19----18-----16-15----18----------------|-16----------18----------19----18-16-18----------|
|--------------------------------16----------|-------16----------16----------------------16----|
|--------------------------------------------|-------------------------------------------------|
|--------------------------------------------|-------------------------------------------------|


   S  S  S  S  S  S  S  S  S  S  S  S  E  S  S
|----------------------------------------------|
|-15----------17----------19----------17-19-17-|
|----16-15-16----16-15-16----16-15-16----------|
|----------------------------------------------|
|----------------------------------------------|
|----------------------------------------------|
|
|  E     E     E     E     E     S  S  E  S  S
|----------------------------------------17-15-|
|----------------------------------------------|
|-16----------18----------19----18-16-18-------|
|-------16----------16-------------------------|
|----------------------------------------------|
|----------------------------------------------|


                           ~~
   S  S  S  S  S  S  S  S  Q  E  S  S
|-------------------------------------|
|-15----------------------------12-11-|
|----18-16-19-18-16-15-18-16----------|
|-------------------------------------|
|-------------------------------------|
|-------------------------------------|
|
|                          ~~
|  S  S  S  S  S  S  S  S  Q  E  S  S
|-14-------14-------------------------|
|----17-15----17-15-14-17-15----15-14-|
|-------------------------------------|
|-------------------------------------|
|-------------------------------------|
|-------------------------------------|


   E  S  S  E  S  S  E  S S  E  S  S    E S S E  S S  E S S E S S
|------------------------------------|------------------------------|
|-12--8--7--8-10--8-10--7-5--7--8--7-|--8-5-3-5--7-5--7-3-2-3-2-3---|
|------------------------------------|------------------------------|
|------------------------------------|------------------------------|
|------------------------------------|------------------------------|
|------------------------------------|------------------------------|
|
|  E  S  S  E  S  S  E  S S  E  S  S    E S S E  S S  E S S E S S
|------------------------------------|------------------------------|
|-15-12-11-12-14-12-14-10-8-10-12-10-|-12-8-7-8-10-8-10-7-5-7-5-7---|
|------------------------------------|------------------------------|
|------------------------------------|------------------------------|
|------------------------------------|------------------------------|
|------------------------------------|------------------------------|


  S S S S Q     S S S S S S T T T T
|-------------------------------6-7-|
|-5-3-2-------------------5-7-8-----|
|-------4-3tr4--4-3-4-6-7-----------|
|-----------------------------------|
|-----------------------------------|
|-----------------------------------|
|
| S S S S Q     H
|-----------------------------------|
|-8-7-5-----------------------------|
|-------7-6tr7----------------------|
|-----------------------------------|
|-----------------------------------|
|-----------------------------------|


           Q=100               Q=90
  Q.   E H                      W
|------6-7-------------------|--------------------------*|
|------7-7-------------------|--------------------------*|
|----------------------------|--------------------------*|
|----------------------------|--------------------------*|
|----------------------------|--------------------------*|
|----------------------------|--------------------------*|
|
| H      E  S  S  S  S  S  S    S S  S S S S S H    +S
|----------------------------|--------------------------*|
|----------15p12-------------|--------------------------*|
|----------------11----------|--------------------------*|
|-------------------12----12-|-11S9----9----------------*|
|----------------------14----|------10---9-7-9----------*|
|----------------------------|-----------------7----(7)-*|



Duration Legend
---------------
W - whole; H - half; Q - quarter; E - 8th; S - 16th; T - 32nd; X - 64th; a - acciaccatura
+ - note tied to previous; . - note dotted; .. - note double dotted
Uncapitalized letters represent notes that are staccato (1/2 duration)
Irregular groupings are notated above the duration line
Duration letters will always appear directly above the note/fret number it represents the
duration for.  Duration letters with no fret number below them represent rests.  Multi-
bar rests are notated in the form Wxn, where n is the number of bars to rest for.  Low
melody durations appear below the staff

Tablature Legend
----------------
 h   - hammer-on
 p   - pull-off
 b   - bend
 pb  - pre-bend
 r   - bend release (if no number after the r, then release immediately)
 /\  - slide into or out of (from/to "nowhere")
 s   - legato slide
 S   - shift slide
 - natural harmonic
[n]  - artificial harmonic
n(n) - tapped harmonic
 ~   - vibrato
 tr  - trill
 T   - tap
 TP  - trem. picking
 PM  - palm muting
\n/  - tremolo bar dip; n = amount to dip
 \n  - tremolo bar down
 n/  - tremolo bar up
/n\  - tremolo bar inverted dip
 =   - hold bend; also acts as connecting device for hammers/pulls
 <> - volume swell (louder/softer)
 x   - on rhythm slash represents muted slash
 o   - on rhythm slash represents single note slash

Misc Legend
-----------
 |  - bar
||  - double bar
||o - repeat start
o|| - repeat end
*|  - double bar (ending)
 :  - bar (freetime)
 $  - Segno
 &  - Coda
Tempo markers -  = BPM(8/16=s8/s16), where s8 = swing 8ths, s16 = swing 16ths

Tap to rate this tab
# A B C D E F G H I J K L M N O P Q R S T U V W X Y Z