Song name
# A B C D E F G H I J K L M N O P Q R S T U V W X Y Z

Yngwie Malmsteen - Unholy Virginity tab

Help us improve GuitareTab! Take a short survey!
This is tabbed by Ran Kental.......my cuzin.....
This is not the full song but this is wad he's gt so far
so..........ENJOY =)


E-7------------------------------------------7---7-10-8-7-8-7---------------|
B--10-8-7-8-7-----7---7-10-8-7-8-7-----7-8-10-8-8------------10-8-10-8-7-8--|
G------------9-8-9-8-9------------9-8-9--------9----------------------------|
D-------------------9-------------------------------------------------------|
A---------------------------------------------------------------------------|
E---------------------------------------------------------------------------|

E---------------------------------------------------------------------------|
B-10------10-13-12-10-12-10----------------8----8-12-10-8-10-8--------------|
G---11--11-----------------12-11-12-11-9-11-9--9--------------11-9-11-9-8-9-|
D-----12-------------------------------------10-----------------------------|
A---------------------------------------------------------------------------|
E---------------------------------------------------------------------------|

E---------------------------------------------------------------------------|
B-7---7-10-8-7-8-7-----7-8-10-7---7-10-8-7-8----8-12-10-8-10------10-13-12--|
G--8-8------------9-8-9--------8-8----------9--9------------11--11----------|
D---9---------------------------9------------10---------------12------------|
A---------------------------------------------------------------------------|
E---------------------------------------------------------------------------|

E----------------------7----7-10-8-7-12-10-8-7-8-7--------------------------|
B-10-12-10--------------8--8----------------------10-8-10------10-13-12-10--|
G---------12-11-9-11-12--9-------------------------------11--11-------------|
D----------------------------------------------------------12---------------|
A---------------------------------------------------------------------------|
E---------------------------------------------------------------------------|

E---------------------------------------------------------------------------|
B-15-13-12-10-12-----8----8-12-10-8-13-12-10-8-10-8----7---7-10-8-7-12-10-8-|
G---------------12-11-9--9-------------------------11-9-8-8-----------------|
D----------------------10--------------------------------9------------------|
A---------------------------------------------------------------------------|
E---------------------------------------------------------------------------|

E----------------|----|
B-7-----7-8-10---|-7--|    THIS LAST TWO NOTES
G--9-8-9---------|--9-|    MAY BE ADDED IF YOU
D----------------|----|    WANT TO =)
A----------------|----|
E----------------|----|
Related for Unholy Virginity tab