Song name
# A B C D E F G H I J K L M N O P Q R S T U V W X Y Z

Yngwie Malmsteen - Far Beyond The Sun tab

Help us improve GuitareTab! Take a short survey!
                                       FAR


  Q=170
 4/4
  Gtr I
|--------------|---------------|---------------|
|--------------|---------------|---------------|
|--------------|---------------|---------------|
|-------0-0--0-|--------3-3--3-|-4------4-4--4-|
|--------------|-4-------------|---------------|
|--------------|---------------|---------------|


|---------------------|----------|------------------|
|---------------------|----------|------------------|
|----1-1--1-----------|----------|------------------|
|-3---------4--4-6--7-|----------|------------------|
|---------------------|-9--------|-7--7-9--11-12----|
|---------------------|----------|------------------|


|-----------------------------|-------------------------|
|-----------------------------|-------------------------|
|-----------------------------|-------------------------|
|-----------------------------|-------------------------|
|-----------------------------|-------------------------|
|-10--10-12--14-16--14-14--14-|-16-13-(13)-10-7-4-(4)-1-|


|-------------------------------|
|-------------------------------|
|-------------------------------|
|-------------------------------|
|-------------------------------|
|-2-4--5-7-9--10-9-7--5-4-2--1--|


|----------|--------------------------------|---------------------|
|-------2--|--------------------------------|---------------------|
|-------1--|--------------------------------|-----------------6---|
|----------|-4------------------------------|-----------------6---|
|-------4--|-4------------------------------|-----------------4---|
|----------|-2------------------------------|---------------------|
|
| Gtr II
|----------|----13-14-13-11-9-7-5-4-2-1-----|---------------------|
|----------|----------------------------3-2-|---------------------|
|----------|--------------------------------|-4-2-1---------------|
|----------|--------------------------------|-------4-3--(3)------|
|----------|--------------------------------|---------------------|
|----------|--------------------------------|---------------------|


|--------------------------------|--------------------|
|--------------------------------|--------------------|
|--------------------------------|-----------------6--|
|-4------------------------------|-----------------6--|
|-4------------------------------|-----------------4--|
|-2------------------------------|--------------------|
|
|----13-14-13-11-9-7-5-4-2-1-----|--------------------|
|----------------------------3-2-|--------------------|
|--------------------------------|-4-2-1--------------|
|--------------------------------|-------4-3--(3)-----|
|--------------------------------|--------------------|
|--------------------------------|--------------------|


|----------------------------------|----------------------------|
|----------------------------------|----------------------------|
|----------------------------------|-------------------------6--|
|-4--------------------------------|-------------------------6--|
|-4--------------------------------|-------------------------4--|
|-2--------------------------------|----------------------------|
|
|-----4-7-13-----------13-16-------|----16-19-21-(21)--(21)-----|
|-----6---15-15-----15----18-15----|-14-18----------------------|
|---------------16--16----------16-|----------------------------|
|---------------18-----------------|----------------------------|
|----------------------------------|----------------------------|
|----------------------------------|----------------------------|


|----------------------------------------|
|----------------------------------------|
|----------------------------------------|
|-4--------------------------------------|
|-4--------------------------------------|
|-2--------------------------------------|
|
|----------------------------------------|
|----------------------------------------|
|----22-23-22-20-18-16-14-13-11-10-------|
|----------------------------------12-11-|
|----------------------------------------|
|----------------------------------------|


|-------------------|-----------------------|
|-------------------|-----------------------|
|-------------------|-----------------------|
|-------------------|-4---------------------|
|-------------------|-4---------------------|
|-------------------|-2---------------------|
|
|-------------------|----2-1-2-(2)--2-5-4-5-|
|-------------------|-----------------------|
|-------------------|-----------------------|
|-9-7-6-4-3--(3)----|-----------------------|
|-------------------|-----------------------|
|-------------------|-----------------------|


|-------------------|-------------------------------------|
|-------------------|-------------------------------------|
|-------------------|-------------------------------------|
|--4----------------|--2----------------------------------|
|--4----------------|--2----------------------------------|
|--2----------------|--0----------------------------------|
|
|-(5)--9-8-9-(9)----|-(9)--9-14-13-14-(14)--(14)-17-16-17-|
|-------------------|-------------------------------------|
|-------------------|-------------------------------------|
|-------------------|-------------------------------------|
|-------------------|-------------------------------------|
|-------------------|-------------------------------------|


|---------------------------|
|---------------------------|
|---------------------------|
|---2-----------------------|
|---2-----------------------|
|---0-----------------------|
|
|-(17)--17-21-20-21-(21)----|
|---------------------------|
|---------------------------|
|---------------------------|
|---------------------------|
|---------------------------|


|-0-------------------|-0-------------|-0---------------------------------|
|---------------------|---------------|-----------------------------------|
|---------------------|---------------|-----------------------------------|
|---------------------|---------------|-----------------------------------|
|---------------------|---------------|-----------------------------------|
|---------------------|---------------|-----------------------------------|
|
|----0-0-0-0--0-0-0-0-|-0--0-0-0-0----|-0-0-0-0-0-0-0-0-0-0-0-0-0-0-0-21--|
|---------------------|---------------|-----------------------------------|
|---------------------|---------------|-----------------------------------|
|---------------------|---------------|-----------------------------------|
|---------------------|---------------|-----------------------------------|
|---------------------|---------------|-----------------------------------|


|---------------------------------------|
|---------------------------------------|
|---------------------------------------|
|---------------------------------------|
|--4------------------------------------|
|--4------------------------------------|
|
|-19-17-16-14-13------------------------|
|----------------15-14-12-10-9-7-6-(6)--|
|---------------------------------------|
|---------------------------------------|
|---------------------------------------|
|---------------------------------------|


|-----------------------|-------------------|
|-----------------------|-------------------|
|-----------------------|-------------------|
|-4---------------------|--4----------------|
|-4---------------------|--4----------------|
|-2---------------------|--2----------------|
|
|-----------------5-4-5-|-(5)--9-8-9-(9)----|
|----7-6-7-(7)--7-------|-------------------|
|-----------------------|-------------------|
|-----------------------|-------------------|
|-----------------------|-------------------|
|-----------------------|-------------------|


|-------------------------------------|
|-------------------------------------|
|-------------------------------------|
|--2----------------------------------|
|--2----------------------------------|
|--0----------------------------------|
|
|-(9)--9-14-13-14-(14)--(14)-17-16-17-|
|-------------------------------------|
|-------------------------------------|
|-------------------------------------|
|-------------------------------------|
|-------------------------------------|


|---------------------------|-0-------------------|
|---------------------------|---------------------|
|---------------------------|---------------------|
|---2-----------------------|---------------------|
|---2-----------------------|---------------------|
|---0-----------------------|---------------------|
|
|-(17)--17-21-20-21-(21)----|----0-0-0-0--0-0-0-0-|
|---------------------------|---------------------|
|---------------------------|---------------------|
|---------------------------|---------------------|
|---------------------------|---------------------|
|---------------------------|---------------------|


|-0-------------|-0--------------------------------|
|---------------|----------------------------------|
|---------------|----------------------------------|
|---------------|----------------------------------|
|---------------|----------------------------------|
|---------------|----------------------------------|
|
|-0--0-0-0-0----|-0-0-0-0-0-0-0-0-0-0-0-0-0-0-0-21-|
|---------------|----------------------------------|
|---------------|----------------------------------|
|---------------|----------------------------------|
|---------------|----------------------------------|
|---------------|----------------------------------|


|---------------------------------------|-10----------------------9-7--5-|
|---------------------------------------|--------------------------------|
|---------------------------------------|--------------------------------|
|---------------------------------------|--------------------------------|
|--4------------------------------------|--------------------------------|
|--4------------------------------------|--------------------------------|
|
|-19-17-16-14-13------------------------|-10--10-10--10-10-10--10-9-7--5-|
|----------------15-14-12-10-9-7-6-(6)--|--------------------------------|
|---------------------------------------|--------------------------------|
|---------------------------------------|--------------------------------|
|---------------------------------------|--------------------------------|
|---------------------------------------|--------------------------------|


|-4-------------(4)------(4)-5--7-|-5------(5)-7--9-7------(7)-9--10-|
|---------------------------------|----------------------------------|
|---------------------------------|----------------------------------|
|---------------------------------|----------------------------------|
|---------------------------------|----------------------------------|
|---------------------------------|----------------------------------|
|
|-4-4--4-4-4--4--4--4--4--4--5--7-|-5-5--5--5--7--9-7-7--7--7--9--10-|
|---------------------------------|----------------------------------|
|---------------------------------|----------------------------------|
|---------------------------------|----------------------------------|
|---------------------------------|----------------------------------|
|---------------------------------|----------------------------------|


|-------------------------------|--------------------------------------|
|-------------------------------|--------------------------------------|
|-------------------------------|--------------------------------------|
|-11------------(11)------------|--------------------------------------|
|--9-------------(9)------------|--------------------------------------|
|--9-------------(9)------------|-10------------(10)-------------------|
|
|--9-10--21-22-----------21-22--|--------------------------------------|
|-------------------------------|--------------------------------------|
|-------------------------------|--------------------------------------|
|----------------23--24---------|-24--24-24--24--24--24--24-23-21--19--|
|-------------------------------|--------------------------------------|
|-------------------------------|--------------------------------------|


|------------------------------------------|
|------------------------------------------|
|------------------------------------------|
|--6------------------(6)------------------|
|--6------------------(6)------------------|
|--6------------------(6)------------------|
|
|---------------------------------------21-|
|------------------------------------------|
|------------------------------------------|
|-18-18--18-18-18--18-18--18--18-18-19-----|
|------------------------------------------|
|------------------------------------------|


|--------------------------------------------------|
|--------------------------------------------------|
|--------------------------------------------------|
|--4----------------------(4)----------------------|
|--4----------------------(4)----------------------|
|--2----------------------(2)----------------------|
|
|-22-21-19-17-16-14-12-10--9--17-16-14-12-10--9-14-|
|--------------------------------------------12----|
|--------------------------------------------------|
|--------------------------------------------------|
|--------------------------------------------------|
|--------------------------------------------------|


|------------------5-----14--|-------------------------------------|
|----------------------------|-15----------------------14-12----10-|
|----------6-------2---------|-------------------------------------|
|--4-------------------------|-------------------------------------|
|----------4-----------------|-------------------------------------|
|--2---------------------14--|-------------------------------------|
|
|-12--10-9-7-10--9-7-5-4-14--|-------------------------------------|
|------------10--------------|-----15-15-15--15-15-15--14-12-10----|
|----------------------------|-------------------------------------|
|----------------------------|-------------------------------------|
|----------------------------|-------------------------------------|
|----------------------------|-------------------------------------|


|-------------------------------------|
|-9-------------(9)------(9)-10----12-|
|-------------------------------------|
|-------------------------------------|
|-------------------------------------|
|-------------------------------------|
|
|-------------------------------------|
|-9-9-9--9-9-9---9--9-9---9--10-12----|
|-------------------------------------|
|-------------------------------------|
|-------------------------------------|
|-------------------------------------|


|-------------------------------------------------|
|-10--------(10)-12----14-12--------(12)-14----15-|
|-------------------------------------------------|
|-------------------------------------------------|
|-------------------------------------------------|
|-------------------------------------------------|
|
|-------------------------------------------------|
|-10-10-10---10--12-14----12-12-12---12--14-15----|
|-------------------------------------------------|
|-------------------------------------------------|
|-------------------------------------------------|
|-------------------------------------------------|


|------------------------------|-------------------------------------|
|------------------------------|-------------------------------------|
|--6------------(6)------------|-------------------------------------|
|--4------------(4)------------|-------------------------------------|
|--4------------(4)------------|--5------------(5)-------------------|
|------------------------------|-------------------------------------|
|
|--------21-22----------21-22--|-------------------------------------|
|-14-15------------------------|-------------------------------------|
|------------------------------|-------------------------------------|
|---------------23--24---------|-24--24-24-24--24--24-24--23-21-19---|
|------------------------------|-------------------------------------|
|------------------------------|-------------------------------------|


|------------------------------------------|
|------------------------------------------|
|------------------------------------------|
|--6------------------(6)------------------|
|--6------------------(6)------------------|
|--6------------------(6)------------------|
|
|--------------------------------------21--|
|------------------------------------------|
|------------------------------------------|
|-18-18-18--18-18-18--18--18-18--18-19-----|
|------------------------------------------|
|------------------------------------------|


|--------------------------------------------|
|--------------------------------------------|
|--------------------------------------------|
|--4---------------------(4)-----------------|
|--4---------------------(4)-----------------|
|--2---------------------(2)-----------------|
|
|----17-21-0-21----------21---0-21-0-0-21----|
|-19------------22----22------------------22-|
|------------------23------------------------|
|--------------------------------------------|
|--------------------------------------------|
|--------------------------------------------|


|-----------------5-------14---|-----------------|
|------------------------------|-----------------|
|---------6-------2------------|-----------------|
|-4----------------------------|-16--------------|
|---------4--------------------|-16--------------|
|-2-----------------------14---|-14--------------|
|
|-0-0-0-0-0-0-0-0---0-21-(21)--|-----------------|
|------------------------------|-19--21--22------|
|------------------------------|-------------23--|
|------------------------------|-----------------|
|------------------------------|-----------------|
|------------------------------|-----------------|


|-------------------|------------------|
|-------------------|------------------|
|-------------------|-14--13-----------|
|-(16)--------------|-14--13--16--14---|
|-(16)--------------|---------16--14---|
|-(14)--------------|-17--16--14--12---|
|
|-------------------|-21--19--17--16---|
|--21---22--24--21--|------------------|
|-------------------|------------------|
|-------------------|------------------|
|-------------------|------------------|
|-------------------|------------------|


|-----------|-----------------|
|-----------|-----------------|
|-11--------|-(11)------------|
|-11--------|-(11)------------|
|-----------|-----------------|
|-14--------|-(14)------------|
|
|-17--------|--17-----16------|
|-----------|-------------17--|
|-----------|-----------------|
|-----------|-----------------|
|-----------|-----------------|
|-----------|-----------------|


|--------------------------------------------------|
|--------------------------------------------------|
|--------------------------------------------------|
|-12-----------------------------------------------|
|-12-----------------------------------------------|
|-10-----------------------------------------------|
|
|----------14-17----------21----------17-----------|
|-------14-------19----19----19----19-------19-----|
|----14-------------18----------18-------18----18--|
|-16-----------------------------------------------|
|--------------------------------------------------|
|--------------------------------------------------|


|-----------------|-------------------|-----------------|--2----|
|-----------------|-------------------|-10---9---7---5--|--2----|
|-11--------------|-(11)--------------|--9---8---6---4--|-------|
|-11--------------|-(11)--------------|--7---6---4---2--|--4----|
|--9--------------|--(9)--------------|-----------------|-------|
|-----------------|-------------------|-----------------|-------|
|
|-----------------|-------------------|-21--19--17--16--|-17----|
|-19--21--22------|--21---22--24--21--|-----------------|-------|
|-------------23--|-------------------|-----------------|-------|
|-----------------|-------------------|-----------------|-------|
|-----------------|-------------------|-----------------|-------|
|-----------------|-------------------|-----------------|-------|


|-(2)------------|-------------------------------------------------|
|-(2)------------|--3----------------------------------------------|
|----------------|--2----------------------------------------------|
|-(4)------------|--0----------------------------------------------|
|----------------|-------------------------------------------------|
|----------------|-------------------------------------------------|
|
|-17-----16------|----------14-17----------21----------17----------|
|------------17--|-------14-------19----19----19----19-------19----|
|----------------|----14-------------18----------18-------18----18-|
|----------------|-16----------------------------------------------|
|----------------|-------------------------------------------------|
|----------------|-------------------------------------------------|


|------------------------|
|--5---------------------|
|--4---------------------|
|--2---------------------|
|------------------------|
|------------------------|
|
|--------------------20--|
|-----------------22-----|
|------------------------|
|-19----17---------------|
|-----------19-21--------|
|------------------------|


|-------------------------|
|--3----------------------|
|--2----------------------|
|--0----------------------|
|-------------------------|
|-------------------------|
|
|-------------------------|
|-19-17-15-13-12-13-12-14-|
|-------------------------|
|-------------------------|
|-------------------------|
|-------------------------|


|---------------------------------|----------------------|
|---2-------6-----(6)-------------|--7-------------------|
|---1-----------------------------|----------------------|
|---1-------3-----(3)-------------|--4-------------------|
|---------------------------------|----------------------|
|---------------------------------|----------------------|
|
|---------------------------------|----------------------|
|-(14)------------------------12--|-12--10-12-10-9-10----|
|------13-(13)-13-13--14-(14)-----|----------------------|
|---------------------------------|----------------------|
|---------------------------------|----------------------|
|---------------------------------|----------------------|


|--------------------------------|--5-----6------|
|-5------------------------------|--5-----6------|
|-4------------------------------|--2-----3------|
|-2------------------------------|---------------|
|--------------------------------|---------------|
|--------------------------------|---------------|
|
|--------------------------------|-------12---12-|
|----12-(12)-12--12--14-(14)-15--|-14------------|
|--------------------------------|---------------|
|--------------------------------|---------------|
|--------------------------------|---------------|
|--------------------------------|---------------|


|--7----12----|-17------------------|
|--7----12----|-17------------15----|
|--4-----9----|-14------------14----|
|-------------|---------------12----|
|-------------|---------------------|
|-------------|---------------------|
|
|-10----------|---------------------|
|-------12----|-14-15-(15)-14-------|
|-------------|---------------14----|
|-------------|---------------------|
|-------------|---------------------|
|-------------|---------------------|


|---------------|----------------------|---------------|
|-16------------|----------------------|---------------|
|---------------|------------11-11--11-|---------------|
|-13------------|-14-------------------|---------------|
|---------------|-14-------------------|--------8-8--8-|
|---------------|-12-------------------|-9-------------|
|
|---------------|----------------------|---------------|
|---------------|---------9------------|---------------|
|-14----13--11--|-10--11---------------|---------------|
|---------------|----------------------|---------------|
|---------------|----------------------|---------------|
|---------------|----------------------|---------------|


|---------------|---------------------|----------|
|---------------|---------------------|----------|
|---------------|---------------------|-7--------|
|---------------|----6-6--6-4--4-6--7-|----------|
|-9------9-9--9-|-8-------------------|----------|
|---------------|---------------------|----------|


|------------------|-----------------------------|-------------------------|
|------------------|-----------------------------|-------------------------|
|------------------|-----------------------------|-------------------------|
|------------------|-----------------------------|-------------------------|
|-7--7-9--11-12----|-----------------------------|-------------------------|
|------------------|-10--10-12--14-16--14-14--14-|-16-13-(13)-10-7-4-(4)-1-|


|------------------------------*|
|------------------------------*|
|------------------------------*|
|------------------------------*|
|------------------------------*|
|-2-4--5-7-9--10-9-7--5-4-2--1-*|



***************************************************************************************
* Generated using Power Tab Editor by Brad Larsen - http://powertab.guitarnetwork.org *
***************************************************************************************
Related for Far Beyond The Sun tab