Song name
# A B C D E F G H I J K L M N O P Q R S T U V W X Y Z

Yngwie Malmsteen - Blitzkrieg tab

#----------------------------------PLEASE NOTE---------------------------------#
#This file is the author's own work and represents their interpretation of the #
#song. You may only use this file for private study, scholarship, or research. #
#------------------------------------------------------------------------------#

BLITZKRIEG
As recorded by Yngwie Malmsteen
(From the 1999 Album ALCHEMY)

Transcribed by Tensleep
	

Music by Yngwie Malmsteen

Gtr I (Eb Ab Db Gb Bb Eb) - 'Untitled'
Gtr II (Eb Ab Db Gb Bb Eb) - 'Untitled'
Gtr III (Eb Ab Db Gb Bb Eb) - 'Untitled'

 Exhibition
  Q=140
 4/4
  Gtr I
   PM------------|   ~~  PM------------|   ~~~~~~~
   |------6-------|      |------6-------|      |-3-|
   S  S  S  S  S  S  Q   S  S  S  S  S  S  E  +E   S
|----------------------------------------------------|
|----------------------------------------------------|
|-------------------14--------------------17-(17)----|
|----------14-15-18--------------14-17-19---------18-|
|-12-15-17--------------12-15-17---------------------|
|----------------------------------------------------|


   |------6-------|  |------6-------|  |------6-------|  |---6----|
   S  S  S  S  S  S  S  S  S  S  S  S  S  S  S  S  S  S  S  S  S  E.
|-------------------15-17-15-----------------------------------------|
|----------15-17-18----------18-17-15--------------------------------|
|-14-16-17----------------------------17-16-14-----------------------|
|----------------------------------------------18-15-14--------------|
|-------------------------------------------------------17-15-14-12--|
|--------------------------------------------------------------------|


   PM------------|   ~~  PM------------|   ~~~~~~~
   |------6-------|      |------6-------|      |-3-|
   S  S  S  S  S  S  Q   S  S  S  S  S  S  E  +E   S
|----------------------------------------------------|
|----------------------------------------------------|
|-------------------14--------------------17-(17)-14-|
|----------14-15-18--------------14-17-19------------|
|-12-15-17--------------12-15-17---------------------|
|----------------------------------------------------|


                     ~~~~~~~~~
   |------6-------|
   S  S  S  S  S  S  Q   Q.      E
|----------------15-17--21b24---17-|
|-------15-17-18-------------------|
|-16-17----------------------------|
|----------------------------------|
|----------------------------------|
|----------------------------------|


                                                         ~~~~~
     |------6-------|  |------6-------|  |-----6-----|
     S  S  S  S  S  S  S  S  S  S  S  S  S  S  S  S  E  +Q
||--20-19-17-16----------------------------------------------|
||o-------------18-17-15-------------------------------------|
||-----------------------17-16-14-13-------------------------|
||-----------------------------------15-14-12----------------|
||o-------------------------------------------15-14-12-(12)--|
||-----------------------------------------------------------|
|
|   Gtr II
|    W
||-----------------------------------------------------------|
||o----------------------------------------------------------|
||-----------------------------------------------------------|
||-----------------------------------------------------------|
||o----------------------------------------------------------|
||-----------------------------------------------------------|


 ~~~~~~
   +W
|--------------------------------------------------------------||
|-------------------------------------------------------------o||
|--------------------------------------------------------------||
|--------------------------------------------------------------||
|-(12)--------------------------------------------------------o||
|--------------------------------------------------------------||
|
|                                                        ~~~~
|   |-------6-------|  |------6-------|  |-----6-----|
|   S   S  S  S  S  S  S  S  S  S  S  S  S  S  S  S  E  +Q
|--20--19-17-16------------------------------------------------||
|---------------18-17-15--------------------------------------o||
|------------------------17-16-14-13---------------------------||
|------------------------------------15-14-12------------------||
|---------------------------------------------15-14-12-(12)---o||
|--------------------------------------------------------------||


  PM--------------|
  S S S S S S E S S S S S S S S
|-------------------------------|
|-------------------------------|
|-------------------3-2---------|
|---2-5-3-2-------2-----5-3-2---|
|-3---------5-3-4-------------4-|
|-------------------------------|


  PM--------------|               PM--------------|
  S S S S S S E S S S S S S S S   S S S S S S E S S S S S S S S
|-------------------------------|-------------------------------|
|-------------------------------|-------------------------------|
|-------------------5-4---------|-------------------7-6---------|
|---4-7-5-4-------4-----7-5-4---|---6-9-7-6-------6-----9-7-6---|
|-5---------7-5-6-------------6-|-7---------9-7-8-------------8-|
|-------------------------------|-------------------------------|


  PM-----------------|                  PM---------------------|
  S S  S S S  S E  S S S S  S S S  S    S  S  S  S  S  S  E  S  S  S  S  S  S  S  S
|------------------------------------|----------------------------------------------|
|------------------------------------|----------------------------------------------|
|----------------------9-8-----------|----------------------------11-10-------------|
|---8-11-9-8---------8-----11-9-8----|----10-13-11-10----------10-------13-11-10----|
|-9----------11-9-10--------------10-|-11-------------13-11-12-------------------12-|
|------------------------------------|----------------------------------------------|


   PM---------------------|
   S  S  S  S  S  S  E  S  S  S  S  S  S  S  S
|----------------------------------------------|
|----------------------------------------------|
|----------------------------13-12-------------|
|----12-15-13-12----------12-------15-13-12----|
|-13-------------15-13-14-------------------14-|
|----------------------------------------------|


                                     To Coda
                                            $
                                       ~~
   |------6-------|  |------6-------|
   S  S  S  S  S  S  S  S  S  S  S  S  H
|----------------15-20-15-------------------|
|-------------16----------16----------------|
|----------17----------------17-------------|
|-------17----------------------17----------|
|-15-18----------------------------18-15----|
|-------------------------------------------|


     |----6----| |----6----| |----6----| |----6----|
     S S S S S S S S S S S S S S S S S S S S S S S S
||-----------------------------------------------------|
||o-12-0-0-0-0-0-0-0-0-8-0-0-7-0-0-0-0-0-0-0-0-0-0-0---|
||-----------------------------------------------------|
||-----------------------------------------------------|
||o----------------------------------------------------|
||-----------------------------------------------------|


                                        1.
                                   ~~~~   PM------------|                      ~~~~~
   |----6----| |----6----|                |------6-------|  |------6-------|
   S S S S S S S S S S S S Q.     +E      S  S  S  S  S  S  S  S  S  S  S  S   H
|--------------------------------------|-------------------14-15-14-----------21b24----|
|-12-0-0-0-0-0-0-0-0-8-0-0-7tr8---(7)/-|----------------------------17-15-14/----------|
|--------------------------------------|----------11-12-14-----------------------------|
|--------------------------------------|-11-12-14--------------------------------------|
|--------------------------------------|-----------------------------------------------|
|--------------------------------------|-----------------------------------------------|


                    D.S. al Dbl. Coda
                                ~~~~~
   E     +E       E     +E   e  E  Q
|-21b24-(21)pb22-21b22-(21)-21-19-19----||
|--------------------------------------o||
|---------------------------------------||
|---------------------------------------||
|--------------------------------------o||
|---------------------------------------||


  2.
                                          ~~~~~~~~
   |------6-------|  |--------7--------|       |-----6------|
   S  S  S  S  S  S  S  S  S  S  S  S  S  Q   +E   S  S  S  S
|----------------------14-15-14----------14--(14)-------------|
|-------------------15----------17-15-14----------17-15-14----|
|----------12-14-16----------------------------------------16-|
|-12-14-16----------------------------------------------------|
|-------------------------------------------------------------|
|-------------------------------------------------------------|


                                             To Dbl. Coda
                     ~~
   |------6-------|      |------6-------|  |------6-------|
   S  S  S  S  S  S  Q   S  S  S  S  S  S  S  S  S  S  S  S
|-15-14----14----14-14--15-14-------------------------------|
|-------17----17--------------17-15-14----------------------|
|--------------------------------------16-15----------------|
|--------------------------------------------17-16-14-------|
|-----------------------------------------------------17-16-|
|-----------------------------------------------------------|


    &
     |----6----| |----6----| |----6----| |----6----|
     S S S S S S S S S S S S S S S S S S S S S S S S
||---------------------------------------------------|
||o-12-0-0-0-0-0-0-0-0-8-0-0-7-0-0-0-0-0-0-0-0-0-0-0-|
||---------------------------------------------------|
||---------------------------------------------------|
||o--------------------------------------------------|
||---------------------------------------------------|


                                   ~~~~
   |----6----| |----6----|
   S S S S S S S S S S S S Q.     +E
|---------------------------------------|
|-12-0-0-0-0-0-0-0-0-8-0-0-7tr8---(7)/--|
|---------------------------------------|
|---------------------------------------|
|---------------------------------------|
|---------------------------------------|


  1.
   |------6-------|  |------6-------|  |------6-------|  |------6-------|
   S  S  S  S  S  S  S  S  S  S  S  S  S  S  S  S  S  S  S  S  S  S  S  S
|----------------------12-14-15-14-12-14-12-------------14-12-------------|
|-12-13-14-15-12-14-15----------------------14-15-14-12-------15-14-12-14-|
|-------------------------------------------------------------------------|
|-------------------------------------------------------------------------|
|-------------------------------------------------------------------------|
|-------------------------------------------------------------------------|


   ~~~~~~~~~~~~~~~                ~~~~~~~
                      |--3--|
   Q      +E       E  S  S  S  S  S  +Q
|-19b21--(19)pb21-19-19h21p19-18-19-(19)---||
|-----------------------------------------o||
|------------------------------------------||
|------------------------------------------||
|-----------------------------------------o||
|------------------------------------------||


  2.
                                               ~~~~~~~~~~
   |------6-------|  |------6------|  |---6----|
   S  S  S  S  S  S  S    E  S  S  S  S  S  S  E.    +Q
|-15-14-12--------------/19-17----------------------------|
|----------15-14-12-11/--------20-19-17-------------------|
|---------------------------------------19-18-18b19r(18)--|
|---------------------------------------------------------|
|---------------------------------------------------------|
|---------------------------------------------------------|


   |------6-------|  |-----6------|  |-----6------|  |-----6------|
   S  S  S  S  S  S  S  S S  S  S S  S  S S  S  S S  S  S S  S  S S
|--------------------------------------------------------------------|
|--------------------------------------------------------------------|
|-18-15-12-18-15-12-15-12-9-15-12-9-12-11-9-12-11-9------------------|
|---------------------------------------------------12-11-9-12-11-9--|
|--------------------------------------------------------------------|
|--------------------------------------------------------------------|


    &&
    Gtrs I, III
     ~~                      ~~~           ~~~            ~~
          |-------6-------|                      |--3--|
     Q   +S   S  S  S  S  S  Q.    S  S    Q.    S  S  S  H
||-----------------------14-19----19p14-|----------------------|
||o-------------------15----------------|-15----14h15p14-------|
||-----------------16-------------------|----------------16----|
||--------------16----------------------|----------------------|
||o-14--(14)h17-------------------------|----------------------|
||--------------------------------------|----------------------|


                                             PM-----------------------
    |------6-------|  |------6-------| |-----6------| |-----6------|
    S  S  S  S  S  S  S  S  S  S  S  S S  S  S S S  S S S  S  S S  S
|-/15-14-12----------------------------------------------------------|
|-----------15-14-12-11-14-12-11-------------------------------------|
|--------------------------------12-11-9------------------------9-11-|
|----------------------------------------12-11-9-8----8-9-11-12------|
|--------------------------------------------------10----------------|
|--------------------------------------------------------------------|


 --------------------------------------------~
   |-----6------| |----6-----|  |----6-----|
   S  S S  S  S S S S  S S S S  S S S  S S S Q
|-------------------------------------------------||
|------------------------------------------------o||
|-12-11-9-----------------------------------------||
|---------12-11-9-8-9-11-9-8----------------------||
|----------------------------9-10-9-7------------o||
|-------------------------------------10-9-7-6----||


  Gtr I
   ~~~~                  ~~~~
              |--3--|               |--3--|
   H..        S  S  S    H..        S  S  S
|---------------------|---------------------|
|---------------------|---------------------|
|-12---------12h14p12-|-11---------11h12p11-|
|---------------------|---------------------|
|---------------------|---------------------|
|---------------------|---------------------|
|
| Gtr II
|  ~~~~                  ~~~~
|             |--3--|               |--3--|
|  H..        S  S  S    H..        S  S  S
|---------------------|---------------------|
|-12---------12h14p12-|-10---------10h12p10-|
|---------------------|---------------------|
|---------------------|---------------------|
|---------------------|---------------------|
|---------------------|---------------------|


  ~~~                ~~~
            |-3--|             |-3-|
  H..       S  S S   H..       S S S
|------------------|-----------------|
|------------------|-----------------|
|-9---------9h11p9-|-7---------7h9p7-|
|------------------|-----------------|
|------------------|-----------------|
|------------------|-----------------|
|
| ~~~                ~~~
|           |-3--|             |-3-|
| H..       S  S S   H..       S S S
|------------------|-----------------|
|-8---------8h10p8-|-7---------7h8p7-|
|------------------|-----------------|
|------------------|-----------------|
|------------------|-----------------|
|------------------|-----------------|


  ~~~~~~~~~                                                                        ~~~~~~
            |---3---|  |------6------|    |-------6--------|  |------6-------|
  H    +E  +S    S  S  S  S S  S  S  S    S   S   S  S  S  S  S  S  S  S  S  S  E  Q.
|---------------/9-10-12-10-9----------|--9--10-/12-14-15-14-12----------------15s21----|
|-----------------------------12-11-12-|------------------------15-14-12-11-12----------|
|-6----(6)-(6)/------------------------|------------------------------------------------|
|--------------------------------------|------------------------------------------------|
|--------------------------------------|------------------------------------------------|
|--------------------------------------|------------------------------------------------|
|
| ~~~~~~~~~~~~~~~~~~~~~~~~~~~~~~~~~~~~~~~~~~~~~~~~~~~~~~~~~~~~~~~~~~~~~~~~~~~~~~~~~~~~~~~
| W                                      +W
|--------------------------------------|------------------------------------------------|
|-5------------------------------------|-(5)--------------------------------------------|
|--------------------------------------|------------------------------------------------|
|--------------------------------------|------------------------------------------------|
|--------------------------------------|------------------------------------------------|
|--------------------------------------|------------------------------------------------|


 ~~~~~~~~~~~~~~~~~~~~~~~~~~~~~~~~~~~~~~~~~~~~~~~~~
   +Q.    E     +Q.    E       +Q.     E     +H
|-(21)---21b22r(21)---21b22r|=(21)----21b22r(21)\----|
|---------------------------|------------------------|
|---------------------------|------------------------|
|---------------------------|------------------------|
|---------------------------|------------------------|
|---------------------------|------------------------|
|
|~~~~~~~~~~~~~~~~~~~~~~~~~~~~~~~~~~~
|   W                          +W
|-/12-----------------------|-(12)\------------------|
|---------------------------|------------------------|
|---------------------------|------------------------|
|---------------------------|------------------------|
|---------------------------|------------------------|
|---------------------------|------------------------|


   |----6----|  |----6----| |----6----| |----6----|
   S S S S S S  S S S S S S S S S S S S S S S S S S
|-10-7-------7-10-7-------7-9-6-------6-9-6-------6-|
|------7---7--------7---7-------7---7-------7---7---|
|--------7------------7-----------6-----------6-----|
|---------------------------------------------------|
|---------------------------------------------------|
|---------------------------------------------------|


   |----6----|  |----6----|  |-----6-----|  |-----6-----|
   S S S S S S  S S S S S S  S S  S S  S S  S S  S S  S S
|-10-7-------7-10-7-------7-12-9---------9-12-9---------9--|
|------7---7--------7---7--------10---10--------10---10----|
|--------7------------7-------------9--------------9-------|
|----------------------------------------------------------|
|----------------------------------------------------------|
|----------------------------------------------------------|


   |------6-------|  |------6-------|  |-----6-----|  |-----6-----|
   S  S  S  S  S  S  S  S  S  S  S  S  S S  S S  S S  S S  S S  S S
|-14-10----------10-14-10----------10-12-9---------9-12-9---------9-|
|-------10----10----------10----10---------10---10--------10---10---|
|----------11----------------11---------------9--------------9------|
|-------------------------------------------------------------------|
|-------------------------------------------------------------------|
|-------------------------------------------------------------------|


                                                         ~~~
   |------6-------|  |------6-------|  |------6-------|
   S  S  S  S  S  S  S  S  S  S  S  S  S  S  S  S  S  S  E.  S
|-14-10----------10-14-10----------10-16-12----------12-16--16--|
|-------10----10----------10----10----------12----12------------|
|----------11----------------11----------------13---------------|
|---------------------------------------------------------------|
|---------------------------------------------------------------|
|---------------------------------------------------------------|


                                                             D.C. al Coda
   ~~~~~~~~~~~~~~~~~
   W            +W              S S  S S  S  S S  S  S S  S S  S  S S  S    6x
|-17--------||-(17)--------||--12-8------------8-10-12-8------------8-10----||
|-----------||-------------||o------10---10-12-----------10---10-12--------o||
|-----------||-------------||----------9--------------------9---------------||
|-----------||-------------||-----------------------------------------------||
|-----------||-------------||o---------------------------------------------o||
|-----------||-------------||-----------------------------------------------||


   |------6-------|  |------6-------|  |------6-------|  |------6-------|
   S  S  S  S  S  S  S  S  S  S  S  S  S  S  S  S  S  S  S  S  S  S  S  S
|----------17-20-17-------------------15-17-15----15----------------------|
|-17-18-20----------18-17-15----15-17----------18----18-17-18-17-15----17-|
|----------------------------17-------------------------------------17----|
|-------------------------------------------------------------------------|
|-------------------------------------------------------------------------|
|-------------------------------------------------------------------------|


   |------6-------|  |------6-------|  |------6-------|  |--3--|
   S  S  S  S  S  S  S  S  S  S  S  S  S  S  S  S  S  S  S  S  S  E a
|----------------12-15-13-12-13-12----12----------------12--------------|
|-15-13-12-13-15-------------------15----15-13-12-13-15----13-12--------|
|----------------------------------------------------------------14s6---|
|-----------------------------------------------------------------------|
|-----------------------------------------------------------------------|
|-----------------------------------------------------------------------|


 Solo
  E=210
 6/8
    ~~~~~~~~~~
    H     +E   S  +S
|-/14----(14)-14-(14)b15-|
|------------------------|
|------------------------|
|------------------------|
|------------------------|
|------------------------|


    ~~~~
   +E   T  T  T  T  T  T  T  T  T  T  T  T  T  T  T  T  T  T  T  T
|-(14)-17-14-16-17-16-14-17-14-16-17-16-14-20-14-16-17-16-14-20-14-|
|------------------------------------------------------------------|
|------------------------------------------------------------------|
|------------------------------------------------------------------|
|------------------------------------------------------------------|
|------------------------------------------------------------------|


                                 ~~~~~
   T  T  T  T  T  T  T  T  T  T  Q.       a   S  a
|-16-17-16-14-17-16-14----14------------------------|
|----------------------17----17-17b19---(17)\-7s19\-|
|---------------------------------------------------|
|---------------------------------------------------|
|---------------------------------------------------|
|---------------------------------------------------|


                                                            |--3--|
   T  T  T  T  T  T  T  T  T  T  S  T  T  T  T  T  T  T  T  T  T  T  S
|----------17-19-21-19-17-19-17----17----------------17-19-16s17h19-21--|
|-17-19-21----------------------21----21-19-17-19-21--------------------|
|-----------------------------------------------------------------------|
|-----------------------------------------------------------------------|
|-----------------------------------------------------------------------|
|-----------------------------------------------------------------------|


                     ~~~~~
   +Q        +S   S  Q       a    T  T  T  T
|-(21)pb22r=(21)-21-21b22--(21)-/20-19-17-16-|
|--------------------------------------------|
|--------------------------------------------|
|--------------------------------------------|
|--------------------------------------------|
|--------------------------------------------|


   T  T  T  T  T  T  T  T  T  T  T  T  T  T  T  T  T  T  T  T  T  T  S
|-19-17-16----17-15-------15----------------------------------16--------|
|----------19-------19-17----19-17-15-19-17-15----17-15----------19-17--|
|----------------------------------------------18-------18-16-----------|
|-----------------------------------------------------------------------|
|-----------------------------------------------------------------------|
|-----------------------------------------------------------------------|


   T  T  T  T  T  T  T  T  T  T  T  T  T  T  T  T  T  T  T  T  T  T  T  T
|-------------------------------------------------------------------------|
|-19-17-15----17-15-------15----------15----------------------------------|
|----------18-------18-16----18-16-14----16-14-13-14-13-11-10-11-13-14-13-|
|-------------------------------------------------------------------------|
|-------------------------------------------------------------------------|
|-------------------------------------------------------------------------|


   E     E     E     E     E     S      T  T
|--------------9tr10-------9tr10-------------|
|--------9tr10-------9tr10-------9tr10----10-|
|-10tr11-------------------------------11----|
|--------------------------------------------|
|--------------------------------------------|
|--------------------------------------------|


  T  T T  T  T  T T  T T T T T T T T T T T T T E
|-9-14p9----------9-10p7-------7-9p5---------------|
|--------10----10--------7---7-------7---------5b7-|
|-----------11-------------7-----------6-----------|
|----------------------------------------7---------|
|------------------------------------------9p4-----|
|--------------------------------------------------|


           ~~~~~~~
                     |-3-| |-3-|
  +Q      +E     S S S S S S S S
|------------------------2-------|
|-(5)pb7--(5)pb7r==2-5-2---------|
|--------------------------4-2---|
|------------------------------4-|
|--------------------------------|
|--------------------------------|


          ~
  T T T T Q    T  T  T  T  T  T  T  T  T  T  T  T
|-------------------------------------------------|
|----------------------------12-13-14-13-12-------|
|-6-4-2----------11-14-11-14----------------14-11S|
|-------4-4--/14----------------------------------|
|-------------------------------------------------|
|-------------------------------------------------|


                                                      ~~~
   T  T  T  T  T  T  T  T  T  T  T  T  T     T  T  T  S.  T  T  T  T  T
|----------------------------------14-------14--------------------------|
|----------------------------14-17----17b19----17-15-14--14-------------|
|-16-14----16-14----14-16-17--------------------------------17-16-14-16-|
|-------16-------16-----------------------------------------------------|
|-----------------------------------------------------------------------|
|-----------------------------------------------------------------------|


   ~~~~~~~~                         ~~~~~~~
   Q   +T   T  T  T  T  T  T  T  T  T  +E   T  T
|----------------14-19p14------------------------|
|-------------15----------15---------------------|
|-16--(16)-16----------------16-14-13-(13)-13-14-|
|------------------------------------------------|
|------------------------------------------------|
|------------------------------------------------|


         ~~~~~~~                       ~~~~
                 |--3--|
   S  S  E  +S   T  T  T  T  T  T  T  +E.  T  T
|---------------------14-19p14------------------|
|------------------15----------15------------16-|
|-16-14-16-(16)-16----------------16-(16)-18----|
|-----------------------------------------------|
|-----------------------------------------------|
|-----------------------------------------------|


   T  T  T  T  T  T  T  T  T  T  T  T  T  T  T  T  T  T  T  T  T  T  T  T
|----------------------16-16-------------------16-16----------------------|
|-17-17-------------17-------17-------------17-------17----------17-------|
|-------16-------16-------------16-------16-------------16----16----16----|
|----------18-18-------------------18-18-------------------18----------18-|
|-------------------------------------------------------------------------|
|-------------------------------------------------------------------------|


                                          ~~~~~~~~~
                                                     |--3--|
   T  T  T  T  T  T  T  T  T  T  T  T  T  S.  +E     S  S  S
|----------16-16-------------------16----16--(16)\-----16-19-|
|-------18-------18-------------18----18-----------/16-------|
|----18-------------18-------18------------------------------|
|-18-------------------18-18---------------------------------|
|------------------------------------------------------------|
|------------------------------------------------------------|


                ~~~~~~~~~~
   a     +Q.    E      E   T  T  T  T
|-18b19r(18)---18b19==18r-19-18-16-18-|
|-------------------------------------|
|-------------------------------------|
|-------------------------------------|
|-------------------------------------|
|-------------------------------------|


                                                                 |--3--|
   T       T  T  T     T  T  T  T  T  T  T  T  T  T  T  T  a     T  T  T  T  T  T  T  T  T
|-19b19.5-18-16-21b22-19-16----19-16----16----16----------21b24r21p19p16----16-21-19-16-----|
|---------------------------21-------21----19----21-19-16----------------19-------------19--|
|-------------------------------------------------------------------------------------------|
|-------------------------------------------------------------------------------------------|
|-------------------------------------------------------------------------------------------|
|-------------------------------------------------------------------------------------------|


   T  T  T  T  T  T  T  T  T  T  T  T  T  T  T  T  T  T  T  T  T  T  T  T
|-19-16-------16----------------------------------------------------------|
|-------21-19----21-19-16-21-19-16----19-16-------16----------------16-19-|
|----------------------------------19-------19-18----19-18-16-18-19-------|
|-------------------------------------------------------------------------|
|-------------------------------------------------------------------------|
|-------------------------------------------------------------------------|


                                                        ~~~~~~~~~~~~
   T  T  T T  T  T  T  T  T  T  T  T  T  T  T  T  T  T  S      +E
|---------------14---------------------------------------------------|
|-16----16-0-19----16----19-16----16---------------------------------|
|----20---------------19-------19----19-18-16----18----16b18==(16)r--|
|---------------------------------------------18----18---------------|
|--------------------------------------------------------------------|
|--------------------------------------------------------------------|


                        ~~~~~
   T     +T  S  E      +H        a      E   H        E
|--------------19b21==(19)r----(19)\-|-----19b21----19-|
|------------------------------------|-\x/-------------|
|-16b18r(16)p0-----------------------|-\x/-------------|
|------------------------------------|-----------------|
|------------------------------------|-----------------|
|------------------------------------|-----------------|


            ~~~~~~~~~      ~~
   |--3--|       |--3---|
   S  S  S  Q   +S   S  S  Q
|-18-19-16h18--(18)h19p16h18--|
|-----------------------------|
|-----------------------------|
|-----------------------------|
|-----------------------------|
|-----------------------------|


                                                          PM------|
    a      +E.  T  T  T  T  T  T  T  T  T  T  T  T  T  T  T  T  T  T
|-(18)b19r(18)-19-18-16-15--------------------------------------------|
|--------------------------17-16-14-----------------------------------|
|-----------------------------------16-15-13-12-----------------------|
|-----------------------------------------------15-13-11--------------|
|--------------------------------------------------------14-13-11-10s=|
|---------------------------------------------------------------------|


                            ~~~~
   E  T  T  T  T  T  T  S  +Q    T  T  T  T
|-------------------11-16-(16)--------------|
|----------------12-------------------12-14-|
|-------------13----------------13-15-------|
|----------13-------------------------------|
|-11-11h14----------------------------------|
|-------------------------------------------|


   T  T  T  T  T  T  T  T  T  T  T  T  T  T  T  T  T  T  T  T  T  T  T  T
|----------12-16-14-12----14-12-------12------------------------------------|
|-12-14-16-------------16-------16-14----16-14-12-16-14-12----14-12---------|
|----------------------------------------------------------15-------15-13---|
|---------------------------------------------------------------------------|
|---------------------------------------------------------------------------|
|---------------------------------------------------------------------------|


                        ~~~~~~~~~~
                                                  |-3-|
   T  T  T  T   E      +Q    +S   S S S   S S S S S S S S S S S S S
|-----------------------------------2---|---4-----------------------|
|-12------------------------------4---4-|-4---4-3-2-----------------|
|----15-11-13-/11b13==(11)--(11)r-------|-----------4-1-6p4---------|
|---------------------------------------|-------------------6p4-4p1-|
|---------------------------------------|---------------------------|
|---------------------------------------|---------------------------|


      ~     PM---------
  S S H     T  T  T T
|---------------------|
|---------------------|
|---------------------|
|-------------------9-|
|-4-6-7----/9-11-12---|
|---------------------|


 ---------|
                                                           |--3--|
   T T  T  T T  T  T T  T T  T  T  T  T  T  T  T  T  T  T  S  S  S
|--------------------9---------11----------12----------14-------14-|
|------------9-11-12---11p9h12----12-14-16----15-16-17----16-17----|
|----9-11-12-------------------------------------------------------|
|-11---------------------------------------------------------------|
|------------------------------------------------------------------|
|------------------------------------------------------------------|


                                         ~~~
   T  T  T  T  T  T  T  T  T     +S   T  Q.
|-16----14-16-18-14-16-18-18b19r(18)-16-18----|
|----17---------------------------------------|
|---------------------------------------------|
|---------------------------------------------|
|---------------------------------------------|
|---------------------------------------------|


                                                      ~~~~~~~
   T  T  T  T  T  T  T  T  T  T  T  T  T  T  T  T  T  T  +E.
|-19-18-16-15------------------------------------------------|
|-------------17-16-14---------------------------------------|
|----------------------16-15-13-12---------------------------|
|----------------------------------14-13-11------------------|
|-------------------------------------------14-13-11-10-(10)-|
|------------------------------------------------------------|


            ~~~~                                                       ~~~~~~~
   Q.      +Q.      T  T  T  T  T  T  T  T  T  T  T  T  T  T  T  T  T  T  +E.
|-19b20---(19)---|-20-19-17-16------------------------------------------------|
|----------------|-------------18-17-15---------------------------------------|
|----------------|----------------------17-16-14-13---------------------------|
|----------------|----------------------------------15-14-12------------------|
|----------------|-------------------------------------------15-14-12-11-(11)-|
|----------------|------------------------------------------------------------|


 Coda
  Q=140
 4/4
   PM------------|   ~~  PM------------|   ~~~~~~~
   |------6-------|      |------6-------|      |-3-|
   S  S  S  S  S  S  Q   S  S  S  S  S  S  E  +E   S
|----------------------------------------------------|
|----------------------------------------------------|
|-------------------14--------------------17-(17)----|
|----------14-15-18--------------14-17-19---------18-|
|-12-15-17--------------12-15-17---------------------|
|----------------------------------------------------|


   |------6-------|  |------6-------|  |------6-------|  |---6----|
   S  S  S  S  S  S  S  S  S  S  S  S  S  S  S  S  S  S  S  S  S  E.
|-------------------15-17-15-----------------------------------------|
|----------15-17-18----------18-17-15--------------------------------|
|-14-16-17----------------------------17-16-14-----------------------|
|----------------------------------------------18-15-14--------------|
|-------------------------------------------------------17-15-14-12--|
|--------------------------------------------------------------------|


   PM------------|   ~~  PM------------|   ~~~~~~~
   |------6-------|      |------6-------|      |-3-|
   S  S  S  S  S  S  Q   S  S  S  S  S  S  E  +E   S
|----------------------------------------------------|
|----------------------------------------------------|
|-------------------14--------------------17-(17)-14-|
|----------14-15-18--------------14-17-19------------|
|-12-15-17--------------12-15-17---------------------|
|----------------------------------------------------|


                     ~~~~~~~~~
   |------6-------|
   S  S  S  S  S  S  Q   Q.      E
|----------------15-17--21b24---17-|
|-------15-17-18-------------------|
|-16-17----------------------------|
|----------------------------------|
|----------------------------------|
|----------------------------------|


                                                         ~~~~~
     |------6-------|  |------6-------|  |-----6-----|
     S  S  S  S  S  S  S  S  S  S  S  S  S  S  S  S  E  +Q
||--20-19-17-16----------------------------------------------|
||o-------------18-17-15-------------------------------------|
||-----------------------17-16-14-13-------------------------|
||-----------------------------------15-14-12----------------|
||o-------------------------------------------15-14-12-(12)--|
||-----------------------------------------------------------|
|
|   Gtr II
|    W
||-----------------------------------------------------------|
||o----------------------------------------------------------|
||-----------------------------------------------------------|
||-----------------------------------------------------------|
||o----------------------------------------------------------|
||-----------------------------------------------------------|


 1.                                                             2.
 ~~~~~~                                                              ~~~~~~
   +W                                                            Q   Q   Q    a   Q
|-------------------------------------------------------------||----16--17--(17)\-----*|
|------------------------------------------------------------o||----------------------*|
|-------------------------------------------------------------||----------------------*|
|-------------------------------------------------------------||----------------------*|
|-(12)-------------------------------------------------------o||----------------------*|
|-------------------------------------------------------------||----------------------*|
|
|                                                        ~~~~        ~~~~~~
|   |-------6-------|  |------6-------|  |-----6-----|
|   S   S  S  S  S  S  S  S  S  S  S  S  S  S  S  S  E  +Q       Q   Q   Q    a   Q
|--20--19-17-16-----------------------------------------------||----19--20--(20)\-----*|
|---------------18-17-15-------------------------------------o||----------------------*|
|------------------------17-16-14-13--------------------------||----------------------*|
|------------------------------------15-14-12-----------------||----------------------*|
|---------------------------------------------15-14-12-(12)--o||----------------------*|
|-------------------------------------------------------------||----------------------*|



Duration Legend
---------------
W - whole; H - half; Q - quarter; E - 8th; S - 16th; T - 32nd; X - 64th; a - acciaccatura
+ - note tied to previous; . - note dotted; .. - note double dotted
Uncapitalized letters represent notes that are staccato (1/2 duration)
Irregular groupings are notated above the duration line
Duration letters will always appear directly above the note/fret number it represents the
duration for.  Duration letters with no fret number below them represent rests.  Multi-
bar rests are notated in the form Wxn, where n is the number of bars to rest for.  Low
melody durations appear below the staff

Tablature Legend
----------------
 h   - hammer-on
 p   - pull-off
 b   - bend
 pb  - pre-bend
 r   - bend release (if no number after the r, then release immediately)
 /\  - slide into or out of (from/to "nowhere")
 s   - legato slide
 S   - shift slide
 - natural harmonic
[n]  - artificial harmonic
n(n) - tapped harmonic
 ~   - vibrato
 tr  - trill
 T   - tap
 TP  - trem. picking
 PM  - palm muting
\n/  - tremolo bar dip; n = amount to dip
 \n  - tremolo bar down
 n/  - tremolo bar up
/n\  - tremolo bar inverted dip
 =   - hold bend; also acts as connecting device for hammers/pulls
 <> - volume swell (louder/softer)
 x   - on rhythm slash represents muted slash
 o   - on rhythm slash represents single note slash

Misc Legend
-----------
 |  - bar
||  - double bar
||o - repeat start
o|| - repeat end
*|  - double bar (ending)
 :  - bar (freetime)
 $  - Segno
 &  - Coda
Tempo markers -  = BPM(8/16=s8/s16), where s8 = swing 8ths, s16 = swing 16ths

Tap to rate this tab
 
# A B C D E F G H I J K L M N O P Q R S T U V W X Y Z