Guitaretab - guitar tabs
Song name
# A B C D E F G H I J K L M N O P Q R S T U V W X Y Z

Yngwie Malmsteen - Disciples Of Hell tab

#----------------------------------PLEASE NOTE---------------------------------#
#This file is the author's own work and represents their interpretation of the #
#song. You may only use this file for private study, scholarship, or research. #
#------------------------------------------------------------------------------#

DISCIPLES OF HELL
As recorded by Yngwie J. Malmsteen
(From the 1985 Album MARCHING OUT)

Transcribed by Wolf Marshall
	

Words and Music by Yngwie J. Malmsteen

Gtr I (E A D G B E) - 'Acoustic Guitar'
Gtr II (E A D G B E) - 'Electric Guitar'
Gtr III (E A D G B E) - 'Electric Guitar'

 Intro: Classical Guitar Solo
  Allegro (tempo rubato) Q=150
  Em
 7/4
  Gtr I
  S  S S  S S  S S  S S  S S  S S  S S  S S  S S  S S  S S  S S  S S  S
|-----------------------------------------------------------------------|
|-----------------------------------------------------------------------|
|-----------------------------------------------------------------------|
|------9---------9---------9---------9---------9---------9---------9----|
|---10---10---10---10---10---10---10---10---10---10---10---10---10---10-|
|-0---------0---------0---------0---------0---------0---------0---------|


  Am/E
  S S S S S S S S S S S S S S S S S S S S S S S S S S S S
|----------------------------------------------------------|
|----------------------------------------------------------|
|----------------------------------------------------------|
|-----7-------7-------7-------7-------7-------7-------7----|
|---7---7---7---7---7---7---7---7---7---7---7---7---7---7--|
|-0-------0-------0-------0-------0-------0-------0--------|


  Em                               D#/E
 3/4                              2/4
  S  S S  S S  S S  S S  S S  S    S S S S S S S S
|--------------------------------|------------------|
|--------------------------------|------------------|
|--------------------------------|------------------|
|------9---------9---------9-----|-----4-------4----|
|---10---10---10---10---10---10\-|---6---6---6---6/-|
|-0---------0---------0----------|-0-------0--------|


  Em
 4/4
  S S S S S S S S S S S S S S S S
|-----------------------------------|
|-----------------------------------|
|-----------------------------------|
|-----5-------5-------5-------5-----|
|---7---7---7---7---7---7---7---7---|
|-0-------0-------0-------0---------|


  C
 7/4
  S S S S S S S S S S S S S S S S S S S S S S S S S S S S
|---------------------------------------------------------|
|---------------------------------------------------------|
|---------------------------------------------------------|
|-----5-------5-------5-------5-------5-------4-------4---|
|---7---7---7---7---7---7---7---7---7---7---7---7---7---7-|
|-8-------8-------8-------8-------8-------8-------8-------|


  Em/B
 4/4
  S S S S S S S S S S S S S S S S   S S S S S S S S S S S S S S S S
|---------------------------------|----------------------------------|
|---------------------------------|----------------------------------|
|---------------------------------|----------------------------------|
|-----5-------5-------5-------5---|-----5-------5-------5-------5----|
|---7---7---7---7---7---7---7---7-|---7---7---7---7---7---7---7---7--|
|-7-------7-------7-------7-------|-7-------7-------7-------7--------|


  F#7/A#
 7/4
  S S S S S S S S S S S S S S S S S S S S S S S S S S S S
|---------------------------------------------------------|
|---------------------------------------------------------|
|---------------------------------------------------------|
|-----4-------4-------4-------4-------4-------4-------4---|
|---7---7---7---7---7---7---7---7---7---7---7---7---7---7-|
|-6-------6-------6-------6-------6-------6-------6-------|


  Bsus4                     Em/B
 3/4
  S S S S S S S S S S S S   S S S S S S S S S S S S
|-------------------------|-------------------------|
|-------------------------|-------------------------|
|-------------------------|-------------------------|
|-----4-------4-------4---|-----5-------5-------5---|
|---7---7---7---7---7---7-|---7---7---7---7---7---7-|
|-7-------7-------7-------|-7-------7-------7-------|


  C                         D#
  S S S S S S S S S S S S    S S S S  S S S S  S  S S S
|-------------------------|-----------------------------||
|-------------------------|-----------------------------||
|-------------------------|-----------------------------||
|-----5-------5-------5---|------7--------7---------7---||
|---7---7---7---7---7---7-|----9---9----9---9-----9---9-||
|-8-------8-------8-------|-11-------11-------11/-------||


 Tranquillo
  poco  rubato Q=108
  Em                                               (B7)Em          F#
              <
    E   E  E  e   E   E     Q     Q     Q      Q   Q   Q    Q  Q   Q
|-----------------------|-<12>--------------|-------------|-----------|
|--------------------12-|-------<12>--------|-------------|-----------|
|-------------9--12-----|-------------<12>--|-11---6---9--|--------5--|
|----------9------------|-------------------|-------------|-----------|
|------10---------------|-------------------|-------------|-9--4------|
|-/12-------------------|-------------------|-------------|-----------|


                                      Q=150
  B7add4
                              |-3-|
  E  E  E  E  E  E   Q    Q   E E E   E  E  E  E  E  E
|----------0-------|----------------|-------------------|
|-------0-----0----|----------------|-------------------|
|----2-----------2-|----------------|----------------4--|
|-1----------------|-2--------------|-------2--4h=5-----|
|------------------|------2---------|----2--------------|
|------------------|----------2h3p2-|-0-----------------|


                          B7           Em
                             ~~~~~~~         ~
  |--3--|
  E  E  E  Q  E E   E  E  E  E  +Q     E  E  H     H.
|----------7--5-3-|-2----------------|-----------|-------|
|-------5---------|----5--4--4--(4)--|-5--4--5---|-------|
|----4------------|------------------|-----------|-------|
|-5---------------|------------------|-----------|-------|
|-----------------|------------------|-----------|-------|
|-----------------|------------------|-----------|-0-----|


  Em                          (D#)
          |-3-|    |-3-|
  E E E E E E E    E E E E  E S S  S S   S S  S S S S S S S S S S
|-------------7-|-12-7-----------------|--------------------------|
|-------0---8---|------8---------------|--------------------------|
|-----0---9-----|--------9----8h9h11-9-|--------------------------|
|---2-----------|----------10----------|-7-8-10-7-----------------|
|---------------|----------------------|----------6-7-9-6---------|
|-0-------------|----------------------|------------------5-7-8-5-|


  Em                                   (D#)
          PM--|
          |-3-|
  E E E E e e e    S S S S  S  S  S  S  S  S  S  S
|-------------7-|-12p7-----15p12-------11-12-14-11-|
|-------0---8---|------8-0-------12----------------|
|-----0---9-----|--------x----------14-------------|
|---2-----------|----------------------------------|
|---------------|----------------------------------|
|-0-------------|----------------------------------|


   S  S  S  S S S  S S S S S  S
|--------------------------------|
|-10-12-13-10--------------------|
|-------------8-9-11-8-2-4-5s(2)-|
|--------------------------------|
|--------------------------------|
|--------------------------------|


  E                      Am        (A)        Am
                                                  ~~~
  S S S S S S S S S E.    S S  S S  S  S  S S  S  E.
|-------4s7p4----------|---------8s12----------------|
|-----5-------5--------|------10------14-10----------|
|-1-4-----------4------|----9---------------9--------|
|-----------------7-6--|-10-------------------12-10--|
|----------------------|-----------------------------|
|----------------------|-----------------------------|


  D
         PM---|
  a  Q   s  s  s  S  S  S  S  S
|----------------10-14p10-------|
|-------------10----------10----|
|-xs11-----12----------------11-|
|-------12----------------------|
|-------------------------------|
|-------------------------------|


                        G
                             |-3--|
    e     e   E  E  Q    Q   E  E E E  E    E  E E  E  E    E      H.
|---------------------|-10---7h10p7-------|--------------------|---------|
|----------------3----|-------------8-----|------0-----0-------|---------|
|---------------------|-------------0--7--|-5--4---------------|-<12>----|
|-<12>--<12>--4-------|-------------------|--------<5>----<12>-|---------|
|-------------------5-|-------------------|--------------------|---------|
|---------------------|-------------------|--------------------|---------|


  C                                                  Em                C
                     ~~                        ~~~
   S  S S S S  S S S E.  S    S S S S S S S S +Q     S S S  S  S S S S S S S S
|-----------8-12p8----------|-----1-5s8p5----------|-7p3-------3p0-----3p0-----|
|---------8--------8--------|---1---------8--------|-----5---------0-------1---|
|-------9------------9---9\-|-2-------------5-(5)--|-------(4)-------0-------0-|
|----10---------------------|----------------------|---------------------------|
|-10------------------------|----------------------|---------------------------|
|---------------------------|----------------------|---------------------------|


  D#     Em
  S S S S S S S  S  S S S S     S    S    S    S  S S S  S S S S S
|-5p2-----3p0-------7p3-----|-<12>---------------------------------|
|-----4-------0---------5---|------<12>------<12>---8--------------|
|-------5--------x--------x-|-----------<12>------9------8---4-----|
|---------------(x)---------|-------------------------5\---5-------|
|---------------------------|----------------------------------7---|
|---------------------------|------------------------------------7-|


                          Gtr II
                          |-3-|
  S S S S +Q   +Q      H  E E E
|-------------------|-^0--------||
|-------------------|-^0--------||
|-------------------|-^0--------||
|-------------------|-^2--------||
|-7-----------------|-^2--------||
|---3-3-7-(7)--(7)\-|-^0--xsxsx-||


 Main Riff
  Hard Rock Q.=144
  E5                C5     E5
 12/8
  Gtr II
  PM--------------|        PM--------------|
  e e e e e e e e e Q.     e e e e e e e e e Q.
|------------------------|------------------------|
|------------------------|------------------------|
|-------------------5----|-------------------9----|
|-------------------5----|-------------------9----|
|-------------------3----|-------------------7----|
|-0-0-0-0-0-0-3-2-0------|-0-0-0-0-0-0-3-2-0------|


                    C5   B5    B/D#  E5                       C5
  PM--------------|                  ~~           PM--------|
  e e e e e e e e e Q.   Q.    Q.    H.     Q  E  e e e e e e Q.
|----------------------|------------------|-----------------------|
|----------------------|------------------|-----------------------|
|-------------------5--|-4-----4-----9\---|-------------------5---|
|-------------------5--|-4-----4-----9\---|-------------------5---|
|-------------------3--|-2-----6-----7\---|-------------------3---|
|-0-0-0-0-0-0-3-2-0----|------------------|-0--0--0-0-0-3-2-0-----|


  E5                                        C5
  PM--------------|             PM--------|
  e e e e e e e e e Q.     Q  E e e e e e e Q.
|------------------------|-----------------------|
|------------------------|-----------------------|
|-------------------9----|------------------5----|
|-------------------9----|------------------5----|
|-------------------7----|------------------3----|
|-0-0-0-0-0-0-3-2-0------|-0--0-0-0-0-3-2-0------|


  B5   B/D#                           E5                C5
                                            PM--------|
  Q.   Q.    E   E   E   E   E   E    Q  E  e e e e e e Q.
|-----------<7>---------<5>---------|-----------------------|
|---------------<7>---------<7>-----|-----------------------|
|-4----4------------<5>---------<0>-|-------------------5---|
|-4----4----------------------------|-------------------5---|
|-2----6----------------------------|-x-----------------3---|
|-----------------------------------|-0--0--0-0-0-3-2-0-----|


                    E5                       C5
  PM--------------|              PM--------|
  e e e e e e e e e Q.     Q  E  e e e e e e Q.
|------------------------|-----------------------|
|------------------------|-----------------------|
|-------------------9----|-------------------5---|
|-------------------9----|-------------------5---|
|-------------------7----|-x-----------------3---|
|-0-0-0-0-0-0-3-2-0------|-0--0--0-0-0-3-2-0-----|


  B5     B/D#   E5                               C5
                ~~             PM-------------|
  Q.     Q.     H.    Q    E   e  e  e  e  e  e  Q.
|-------------------|---------------------------------|
|-------------------|---------------------------------|
|-4------4------9\--|----------------------------5----|
|-4------4------9\--|----------------------------5----|
|-2------6------7\--|----------------------------3----|
|-------------------|-0----0---0--0--0--3--2--0-------|


  E5                                        C5    B5     B/D#   E5
  PM--------------|                                             ~~
  e e e e e e e e e Q.     +H     Q  E E E  Q.    Q.     Q.     H.
|------------------------|----------------------|--------------------||
|------------------------|----------------------|--------------------||
|-------------------9----|-(9)--------------5---|-4------4------9\---||
|-------------------9----|-(9)--------------5---|-4------4------9\---||
|-------------------7----|-(7)--------------3---|-2------6------7\---||
|-0-0-0-0-0-0-3-2-0------|--------0--3-2-0------|--------------------||


 Verse
  E5                                          D5
  PM------------------|         PM--------|       PM--------|
  q  e e e e q  e e e e   H     q q e e e e   Q.  E E E E E E Q.
|-----------------------|-------------------|---------------------|
|-----------------------|-------------------|---------------------|
|-----------------------|-------------------|-7---x-x-x-x-x-x-7---|
|-----------------------|-------------------|-7---x-x-x-x-x-x-7---|
|-----------------------|-------------------|-5---x-x-x-x-x-x-5---|
|-0--0-0-0-0-0--0-0-0-0-|-0-----0-0-0-0-0-0-|---------------------|


                           E5
  PM--------------| ~~             PM--|
  e e e e e e e e e Q.     H.      e e e Q.    H.    e e e E e e
|------------------------|-------------------|-------------------|
|------------------------|-------------------|-------------------|
|------------------------|-9-----------------|-9-----------------|
|------------------------|-9-----------------|-9-----------------|
|-3-2-0-3-2-0---2-3-5----|-7-----------------|-7-----------------|
|-------------x----------|-0-------0-0-0-0---|-------0-0-0-0-0-0-|


       PM--------|        PM--------------| ~~          PM--------|
  Q.   E E E E E E Q.     e e e e e e e e e Q.     Q.   e e e e e e Q.
|-----------------------|------------------------|------------------------|
|-----------------------|------------------------|------------------------|
|-7----x-x-x-x-x-x-7----|------------------------|------------------9-----|
|-7----x-x-x-x-x-x-7----|------------------------|------------------9-----|
|-5----x-x-x-x-x-x-5----|-3-2-0-3-2-0---2-3-5----|-x----------------7-----|
|-----------------------|-------------3----------|-0----0-0-0-0-0-0-0-----|


  Q    E   E   E   E   E    E    Q   Q
|-----<7>------------------------------|
|---------<7>-----<7>-----------<7>----|
|-9-----------<5>-----<5>--<7>---------|
|-9------------------------------------|
|-7------------------------------------|
|-x------------------------------------|


       PM--------|        PM--------------| ~~
  Q.   e e e e e e Q.     e e e e e e e e e Q.
|-----------------------|-----------------------|
|-----------------------|-----------------------|
|-7----------------7----|-----------------------|
|-7----x-x-x-x-x-x-7----|-----------------------|
|-5----5-5-5-5-5-5-5----|-3-2-0-3-2-0---2-3-5---|
|-----------------------|-------------3---------|


          PM--|                PM--------|        PM--------|
  H.      e e e Q.     H.      E E E E E E   Q.   e e e e e e Q.
|---------------0----|---------------------|------------------------|
|---------------0----|---------------------|------------------------|
|-9-------------9----|---------------------|-7----------------7-----|
|-9-------------9----|---------------------|-7----x-x-x-x-x-x-7-----|
|-7-------------7----|---------------------|-5----5-5-5-5-5-5-5-----|
|-0-------0-0-0-0----|-0-------0-0-0-0-0-0-|------------------------|


                           Pre-Chorus
                            F#5
  PM--------------| ~~      PM--------------------|
  e e e e e e e e e Q.      e e e e e e e e e e e e
|------------------------||-------------------------|
|------------------------||-------------------------|
|------------------------||-------------------------|
|------------------------||-------------------------|
|-3-2-0-3-2-0-3-2-0-5----||-------------------2-1---|
|------------------------||-2-2-2-2-2-2-0-2-3-----3-|


        PM----------------------------------------|
  E E E e e e e e e e e e   e e e e e e e e e e e e
|-------------------------|-------------------------|
|-------------------------|-------------------------|
|-------------------------|-------------------------|
|-5p4p2-------------------|-------------------------|
|-------5-4-2-1-2-4-------|-------------------2-1---|
|-------------------0-2-3-|-2-2-2-2-2-2-0-2-3-----3-|


                              PM--------------------|
  S S E E E E e e e e E E E   e e e e e e e e e e e e
|---------------------------|-------------------------|
|---------------------------|-------------------------|
|-3h4p3---------------------|-------------------------|
|-------5-4-2---------2-4-5-|-------------------------|
|-------------5-2-4-5-------|-------------------2-1---|
|---------------------------|-2-2-2-2-2-2-0-2-3-----3-|


        PM----------------------------------------|
  E E E e e e e e e e e e   e e e e e e e e e e e e
|-------------------------|-------------------------|
|-------------------------|-------------------------|
|-------------------------|-------------------------|
|-5p4p2-------------------|-------------------------|
|-------5-4-2-1-2-4-------|-------------------2-1---|
|-------------------0-2-3-|-2-2-2-2-2-2-0-2-3-----3-|


                              Chorus
                                  PM----------------|
  S S E E E E e e e e E E E    Q  e e e e e e e e e e
|---------------------------||------------------------|
|---------------------------||------------------------|
|-3h4p3---------------------||------------------------|
|-------5-4-2---------2-4-5-||------------------------|
|-------------5-2-4-5-------||-x----------------------|
|---------------------------||-0--0-0-0-0-0-0-0-0-0-0-|


  F#                        G                         A
  PM------------------------------------------------------------------------|
  e e e e e e e e e e e e   e e e e e e e e e e e e   e e e e e e e e e e e e
|-------------------------|-------------------------|--------------------------|
|-------------------------|-------------------------|--------------------------|
|-------------------------|-------------------------|--------------------------|
|-------------------------|-------------------------|--------------------------|
|-------------------------|-------------------------|--------------------------|
|-2-2-2-2-2-2-2-2-2-2-2-2-|-3-3-3-3-3-3-3-3-3-3-3-3-|-5-5-5-5-5-5-5-5-5-5-5-5--|


  B                         C
  PM-------------------------------------------------
  e e e e e e e e e e e e   e e e e e e e e e e e e
|-------------------------|-------------------------|
|-------------------------|-------------------------|
|-------------------------|-------------------------|
|-------------------------|-------------------------|
|-------------------------|-------------------------|
|-7-7-7-7-7-7-7-7-7-7-7-7-|-8-8-8-8-8-8-8-8-8-8-8-8-|


  D
 ----------------------------------|
   e  e  e  e  e  e  e  e  e  e  e  e
|--------------------------------------|
|--------------------------------------|
|--------------------------------------|
|--------------------------------------|
|--------------------------------------|
|-10-10-10-10-10-10-10-10-10-10-10-10--|


  B/D#                                          E5
                                         ~~
  E S  S  S  S S  S  S S  S S E.  S S  S Q.     W.
|-----11-12-11-8------------------------------|-------|
|----------------12-10-8----------------------|-------|
|------------------------11-9-8---9p8---------|-------|
|-------------------------------------10-9----|-2-----|
|---------------------------------------------|-2-----|
|---------------------------------------------|-0-----|


  F#                        G                         A
  PM------------------------------------------------------------------------|
  e e e e e e e e e e e e   e e e e e e e e e e e e   e e e e e e e e e e e e
|-------------------------|-------------------------|--------------------------|
|-------------------------|-------------------------|--------------------------|
|-------------------------|-------------------------|--------------------------|
|-------------------------|-------------------------|--------------------------|
|-------------------------|-------------------------|--------------------------|
|-2-2-2-2-2-2-2-2-2-2-2-2-|-3-3-3-3-3-3-3-3-3-3-3-3-|-5-5-5-5-5-5-5-5-5-5-5-5--|


  B                         C                   C#
  PM-------------------------------------------------
  e e e e e e e e e e e e   e e e e e e e e e e e e
|-------------------------|-------------------------|
|-------------------------|-------------------------|
|-------------------------|-------------------------|
|-------------------------|-------------------------|
|-------------------------|-------------------------|
|-7-7-7-7-7-7-7-7-7-7-7-7-|-8-8-8-8-8-8-8-8-8-8-9-9-|


  D
 ----------------------------------|
   e  e  e  e  e  e  e  e  e  e  e  e
|--------------------------------------|
|--------------------------------------|
|--------------------------------------|
|--------------------------------------|
|--------------------------------------|
|-10-10-10-10-10-10-10-10-10-10-10-10--|


                                    segno
                                  $
  B/D#                               E5               C5
   PM---------------------|             PM----------|
   e  e  e  e  e  e  e  e  e Q.      Q  E E E E E E E Q.
|---------------------------------||-----------------------|
|---------------------------------||-----------------------|
|---------------------------------||------------------5----|
|---------------------------------||-2----------------5----|
|---------------------------------||-2----------------3----|
|-11-11-11-11-11-11-11-11-11-x\---||-0--0-0-0-0-0-2-0------|


  E5                                          C5
  PM--------------|         PM--------------|
  e e e e e e e e e  Q.     e e e e e e e e e Q.
|-------------------------|------------------------|
|-------------------------|------------------------|
|--------------------9----|-------------------5----|
|--------------------9----|-------------------5----|
|--------------------7----|-------------------3----|
|-0-0-0-0-0-0-3-2-0-------|-0-0-0-0-0-0-3-2-0------|


  B5
             ~~
  Q.   Q.    Q.    e   e   e    Q  E e e e e e e Q.
|---------------------<7>-----|--------------------------|
|-----------------<7>---------|--------------------------|
|-4----------9\-----------<5>-|------------------5-------|
|-4----------9\---------------|-2----------------5-------|
|-2----6-----7\---------------|-2----------------3-------|
|-----------------------------|-0--0-0-0-0-3-2-0---------|
|
| Gtr III
|                                                     ~~~
|          W                    Q  E e e e e e e      Q.
|-----------------------------|--------------------------|
|-----------------------------|--------------------------|
|-----------------------------|----------------------[5]-|
|-----------------------------|-2------------------------|
|-----------------------------|-2------------------------|
|-----------------------------|-0--0-0-0-0-3-2-0---------|


  PM--------------|           PM----------|
  e e e e e e e e e Q.    Q   E E E E E E E  Q.
|-------------------0---|-----------------------|
|-------------------0---|-----------------------|
|-------------------9---|--------------------5--|
|-------------------9---|-2------------------5--|
|-------------------7---|-2------------------3--|
|-0-0-0-0-0-0-3-2-0-----|-0---0-0-0-0-3p2-0-----|

[ Tab from: http://www.guitaretab.com/y/yngwie-malmsteen/126909.html ]
  Q.   Q.    E   E   e    E   E   e
|-----------<5>----------<7>----------||
|---------------<5>----------<7>--x---||
|-4-----------------<5>----------<7>--||
|-4----9------------------------------||
|-2----6------------------------------||
|-------------------------------------||


 Verse
  PM-------------| ~~         PM--------|           PM--------|
  q.   e e e e e e Q.     q.  e e e e e e Q.   Q.   e e e e e e Q.
|-----------------------|--------------------|-----------------------|
|-----------------------|--------------------|-----------------------|
|-----------------------|--------------------|-7----------------7----|
|-2---------------------|--------------------|-7----x-x-x-x-x-x-7----|
|-2----------------7----|-----------------7--|-5----5-5-5-5-5-5-5----|
|-0----0-0-0-0-0-0------|-0---0-0-0-0-0-0----|-----------------------|


                          E5
  PM--------------| ~~                         PM------|   PM--------|
  e e e e e e e e e Q.    H   Q   +Q  Q   Q    e e e e e E e e e e e e
|-----------------------|-----0---(0)--------|-----------0---------------|
|-----------------------|-----0---(0)--------|-----------0---------------|
|-----------------------|-------------9------|---------------------------|
|-----------------------|-------------9------|---------------------------|
|-3-2-0-3-2-0---2-3-5---|--------------------|---------------------------|
|-------------3---------|-0---------------0--|-0-0-0-0-0---0-0-0-0-0-0---|


  D5
                   PM--------------| ~~      PM--------------------|
  Q.   Q.  H.      e e e e e e e e e Q.      e e e e e e e e e e e e
|----------------|------------------------||---------------------------|
|----------------|------------------------||---------------------------|
|-7--------------|------------------------||---------------------------|
|-7----xs==x\----|------------------------||---------------------------|
|-5----xs==x\----|-3-2-0-3-2-0---2-3-5----||-------------------2-1-----|
|----------------|-------------3----------||-2-2-2-2-2-2-0-2-3-----3---|


        PM----------------------------------------|
  E E E e e e e e e e e e   e e e e e e e e e e e e
|-------------------------|-------------------------|
|-------------------------|-------------------------|
|-------------------------|-------------------------|
|-5p4p2-------------------|-------------------------|
|-------5-4-2-1-2-4-------|-------------------2-1---|
|-------------------0-2-3-|-2-2-2-2-2-2-0-2-3-----3-|


              PM----|
  S S E E E E e e e e E E E
|-----------------------------||
|-----------------------------||
|-3h4p3-----------------------||
|-------5-4-2---------2-4-5---||
|-------------5-2-4-5---------||
|-----------------------------||


 Chorus
  PM------------------------------------------------------------------------|
  e e e e e e e e e e E E   e e e e e e e e e e e e   e e e e e e e e e e e e
|-------------------------|-------------------------|--------------------------|
|-------------------------|-------------------------|--------------------------|
|-------------------------|-------------------------|--------------------------|
|-------------------------|-------------------------|--------------------------|
|-------------------------|-------------------------|--------------------------|
|-0-0-0-0-0-0-0-0-0-0-0-0-|-2-2-2-2-2-2-2-2-2-2-2-2-|-3-3-3-3-3-3-3-3-3-3-3-3--|


  PM-------------------------------------------------|   ~~           ~~
  e e e e e e e e e e e e   q  e e e e e e e e e e   Q.  Q.  +Q    e  Q.
|-------------------------|------------------------|----------------------|
|-------------------------|------------------------|----------------------|
|-------------------------|------------------------|----------------------|
|-------------------------|------------------------|----------------------|
|-------------------------|------------------------|-----9---(9)------9---|
|-5-5-5-5-5-5-5-5-5-5-5-5-|-7--7-7-7-7-7-7-7-7-7-7-|-8------------(8)-----|


                                                                  PM--------|
   E  E  E  Q  E  E  E  E  Q  E    E E E E E E E E E E E E   H.   e e e e e e
|-------------------------------|--------------------------|------------------|
|-------------------------------|----------4-7-5-4---------|------------------|
|-------------------------------|------4-6---------5-4-----|------------------|
|----------12-------------12----|----------------------7-5-|-2----------------|
|-------------------------------|--------------------------|-2----------------|
|-10-10-10-------10-10-10-------|-11-----------------------|-0----0-0-0-0-0-0-|


  PM------------------------------------------------------------------------|
  e e e e e e e e e e e e   e e e e e e e e e e e e   e e e e e e e e e e e e
|-------------------------|-------------------------|--------------------------|
|-------------------------|-------------------------|--------------------------|
|-------------------------|-------------------------|--------------------------|
|-------------------------|-------------------------|--------------------------|
|-------------------------|-------------------------|--------------------------|
|-2-2-2-2-2-2-2-2-2-2-2-2-|-3-3-3-3-3-3-3-3-3-3-3-3-|-5-5-5-5-5-5-5-5-5-5-5-5--|


  PM-------------------------------------------------
  e e e e e e e e e e e e   e e e e e e e e e e e e
|-------------------------|-------------------------|
|-------------------------|-------------------------|
|-------------------------|-------------------------|
|-------------------------|-------------------------|
|-------------------------|-------------------------|
|-7-7-7-7-7-7-7-7-7-7-7-7-|-8-8-8-8-8-8-8-8-8-8-9-9-|


 ----------------------------------|
   e  e  e  e  e  e  e  e  e  e  e  e
|--------------------------------------|
|--------------------------------------|
|--------------------------------------|
|--------------------------------------|
|--------------------------------------|
|-10-10-10-10-10-10-10-10-10-10-10-10--|


   PM-----------------------------|   ~~             PM--------|
   e   e   e   e   e   e   e   e  e   Q  E    Q.     E E E E E E Q.
|------------------------------------------||------------------------|
|------------------------------------------||------------------------|
|------------------------------------------||------------------------|
|-----13------13------13------13-----13----||-2------------------5---|
|-------------------------------------x----||-2------------------5---|
|-11------11------11------11------x--------||-0------0-0-0-3-2-0-3---|


                                                                 To Coda  &
  PM--------------|             PM--------|                       ~~
  e e e e e e e e e Q.     Q.   E E E E E E Q.     Q.      Q      H.    E
|------------------------|-----------------------|-------------------------||
|------------------------|-----------------------|-------------------------||
|-------------------9----|------------------5----|-4-----------------------||
|-------------------9----|-2----------------5----|-4-------x------x\-------||
|-------------------7----|-2----------------3----|-2-------6------7\-------||
|-0-0-0-0-0-0-3-2-0------|-0----0-0-0-3-2-0------|-------------------------||


  PM-------------|        PM--------------|
  q  e e e e e e e Q.     e e e e e e e e e Q.
|-----------------------|------------------------|
|-----------------------|------------------------|
|------------------5----|-------------------9----|
|------------------5----|-------------------9----|
|-x----------------3----|-------------------7----|
|-0--0-0-0-0-3-2-0------|-0-0-0-0-0-0-3-2-0------|


  PM--------------|
  e e e e e e e e e Q.     Q.   Q.    E   E   E   E   E   E
|------------------------|-----------<7>---------<7>---------||
|------------------------|---------------<7>---------<7>-----||
|-------------------5----|-4-----------------<5>---------<7>-||
|-------------------5----|-4----9----------------------------||
|-------------------3----|-2----6----------------------------||
|-0-0-0-0-0-0-3-2-0------|-----------------------------------||


 Guitar Solo
  Q=Q. Q=Q.
  Em                                B
                                   4/4
  PM---|
  e. e e. E E E  E E E  S  S  S S   S S  S S S S  S S S S S S S S S S
|-------------7-12p7--------------|-----------------------------------|
|-----------8--------8-12p(x)-----|-----------------------------------|
|---------9---------------------9-|-8-9-11-8--------------------------|
|----5-9----------------------9---|----------7-9-10-7-----------------|
|-7-------------------------------|-------------------6-7-9-6---------|
|---------------------------------|---------------------------5-7-8-5-|


 12/8
  PM-------|
  e. e. e. E. E E  S S S S  S  S  S  S
|---------------7-12p7-----15p12-------|
|-------------8--------8---------12----|
|----------9-------------9----------12-|
|----5--9------------------------------|
|-7------------------------------------|
|--------------------------------------|


 4/4
   S  S  S  S  S  S  S  S S S  S S S S  S S
|-11-12-14-11-------------------------------|
|-------------10-12-13-10-------------------|
|-------------------------8-9-11-8----------|
|----------------------------------7-9-10-7-|
|-------------------------------------------|
|-------------------------------------------|


  E
 12/8
                              ~~~
   E  E  E  E  E  E  E  E  E  Q.
|-------12-16p12-16s19-16----------|
|----12-------------------17-------|
|-14-------------------------16----|
|----------------------------------|
|----------------------------------|
|----------------------------------|


  Am
 4/4
   S  S  S  S  S  S  S  S  S S  S S  S  S S  S
|-20p17-------17p12-------12p8-----------------|
|-------17----------13---------10---12p10------|
|----------17----------14---------9-------9----|
|-------------------------------------------10-|
|----------------------------------------------|
|----------------------------------------------|


 12/8
                              ~~~
   E  E  E  E  E  E  E  E  E  Q.
|-------10-14-10-14s17-14----------|
|----10-------------------15-------|
|-11-------------------------14----|
|----------------------------------|
|----------------------------------|
|----------------------------------|


           PM--|       ~~                            ~~~
  a  E E e e e E E E E Q.    E E E  E E  E  E  E  E  Q.
|-7h10p7-------------------|-----8-12-8-12s16-12---------|
|--------8---8-------------|---8-----------------13------|
|----------7---7S4-7-4-----|-9----------------------12---|
|----------------------5---|-----------------------------|
|--------------------------|-----------------------------|
|--------------------------|-----------------------------|


  F
                                     4/4
                               ~~~
   E  E  E  E  E  E   E  E  E  Q.      S  S  S   S   S  S  S  S  S  S  S  S  S  S  S  S
|-------13-17-13-17s=20-17----------|-19p15---------15p12-------15p12----15-14p11----14-|
|----13--------------------18-------|-------17------------12----------12----------12----|
|-14--------------------------17----|----------(16)----------12-------------------------|
|-----------------------------------|---------------------------------------------------|
|-----------------------------------|---------------------------------------------------|
|-----------------------------------|---------------------------------------------------|


                                     ~~~~
   S  S  S  S   S  S  S  S   a      +H
|-15p12--------19p15--------21b23==(21)---||
|-------12-----------17-------------------||
|----------12-----------16----------------||
|-----------------------------------------||
|-----------------------------------------||
|-----------------------------------------||


 Guitar Solo
 12/8
                ~~~~~~~          ~~~~~~~~~~~~~~~
   +H           Q          +Q    E        Q.
|-(21)pb23-----21pb24=====(21)--21pb24---21pb24--|
|------------------------------------------------|
|------------------------------------------------|
|------------------------------------------------|
|------------------------------------------------|
|------------------------------------------------|


   \1.5     /      \0.5
                                       ~~~~~~~~~~~~~~~~~~~~
   Q       +E     +Q       +E    +Q    E       +Q    +E
|-21b24---(21)---(21)-----(21)--(21)--21b24===(21)--(21)r\-|
|----------------------------------------------------------|
|----------------------------------------------------------|
|----------------------------------------------------------|
|----------------------------------------------------------|
|----------------------------------------------------------|


  E E  Q.       S  S  S  S  S  S  S  S  S  S  S  S  S  S
|--------------17----------------17-20-19-17----19-17----|
|---xS20b22-------20-19-17-19-20-------------20-------20-|
|--------------------------------------------------------|
|--------------------------------------------------------|
|--------------------------------------------------------|
|--------------------------------------------------------|


 4/4
   |-----5-----|  |-----5-----|  |-----5-----|  |--------5---------|
   S  S  S  S  S  S  S  S  S  S  S  S  S  S  S  S  S      +S    S  S
|-------17----------------17-20-19-17----19-17-----------------17-----|
|-19-20----20-19-17-18-20-------------20-------20-20b22==(20)r----20--|
|---------------------------------------------------------------------|
|---------------------------------------------------------------------|
|---------------------------------------------------------------------|
|---------------------------------------------------------------------|


                                          ~~~~~~~~
   |-----5-----|  |-----5-----|  |------5------|    |--5--|
   S  S  S  S  S  S  S  S  S  S  S  S  S  E   +E.  +S     S
|-----------------------------------------------------------|
|-19p17-20-19-17----19-17s16----17-16-----------------------|
|----------------20----------17-------17-16--(16)--(x)\-----|
|--------------------------------------------------------17-|
|-----------------------------------------------------------|
|-----------------------------------------------------------|


                                           ~~
   S  S  S  S  S  S  S  S   S  s  E  S  S  E
|-------------19p15-----------------------------|
|----------17-------17--------------------------|
|-16----16-------------16--16-16-16-------------|
|----17-----------------------------17-16-14----|
|-----------------------------------------------|
|-----------------------------------------------|


 4/4
   +S   S  S  S  S  S  S  S  S  S  S  S  S  S  S  S
|------------19-18h19-14-19----19-17-19-16-19-14-19-|
|---------17----------------17----------------------|
|------16-------------------------------------------|
|-(14)----------------------------------------------|
|---------------------------------------------------|
|---------------------------------------------------|


                                                ~~
   S  S  S  S  S  S  S  S  S  S  S  S  S  S  S  S
|----19-19s20-17-20-16-20----20--------------------||
|-17----------------------19----19p17h20p17p16-17--||
|--------------------------------------------------||
|--------------------------------------------------||
|--------------------------------------------------||
|--------------------------------------------------||


 12/8
    ~~~~                                    T
   +Q   a a  E       +Q    +E  Q   E  S  S  S  S  S  S
|------------------------------0--14-14h18h21p14h18p14p|
|-(17)------17b19===(17)r=(17)-0-----------------------|
|---------x--------------------x-----------------------|
|-------x----------------------------------------------|
|------------------------------------------------------|
|------------------------------------------------------|


           T                    T          ~~~~~~~
  |-----5-----|  |------6-------|
  S  S  S  S  S  S  S  S  S  S  S S  E  E  H  +E.
|-xh14h18h21p15h18p15p12h14h18h21pxh14-14---------|
|-----------------------------------------17-(17)-|
|-------------------------------------------------|
|-------------------------------------------------|
|-------------------------------------------------|
|-------------------------------------------------|


   ~~
   Q   Q   E       S  S  S  S  S  S  S  S  S  S  S   S   S  S
|-----------------12----------------12h14h15p14p12------12h14p|
|-17---xs=15pb17-----15-14-12-14h15----------------(15)-------|
|-------------------------------------------------------------|
|-------------------------------------------------------------|
|-------------------------------------------------------------|
|-------------------------------------------------------------|


   S  E  S  S  S S  S S S S S S S S  S  S S S  S S S  S  S
|-12-10-10h12p10-7h10p9p7-6h9p7p6-9h12p10p9-7h10p9p7-14p12--|
|-----------------------------------------------------------|
|-----------------------------------------------------------|
|-----------------------------------------------------------|
|-----------------------------------------------------------|
|-----------------------------------------------------------|


                     |----5:6----|
   S   S  S  S  S  S S  S  S  S  S  S  S  S  S  S  S  S  S  S  S  S  S
|-10p-(9)-9h10h12p10p9S12-15-14-12--------------------------------------|
|----------------------------------15-14-12s10-------15-14-12-----------|
|----------------------------------------------12p11----------15-14-12\-|
|-----------------------------------------------------------------------|
|-----------------------------------------------------------------------|
|-----------------------------------------------------------------------|


    |----5:6-----|   |----5:6----|  |----5:6----|
    S  S  S  S   S   S  S  S  S  S  S  S  S  S  S  E  E  E
|----------------------------------------------------------|
|-------------------12-11----------------------------------|
|-/11---------------------14-12p11----12p11----------------|
|-----14-12p11---------------------14-------14-12p11-------|
|--------------(14)----------------------------------14-12-|
|----------------------------------------------------------|


                   \3
   H        +E    +Q      a   Q       +E    E   E
|----------------------------21b24r==(21)p=18-----|
|----------------------------------------------19-|
|-------------------------------------------------|
|-------------------------------------------------|
|-14pb16===(14)--(14)r--(14)----------------------|
|-------------------------------------------------|


         ~~~~~~~              ~~~~~~~~~~~
   E  E  E  +Q.      +Q.      Q.
|---------------------------------------|
|----------------------------15pb17-----|
|-18-16-15-(15)-----(15)----------------|
|---------------------------------------|
|---------------------------------------|
|---------------------------------------|
|
| Gtr III
|  E  E  E   E  E E   E  E E  E     E E
|---------------------------------------|
|---------------------------------------|
|---------------------------------------|
|--5--4--2------------------------------|
|------------5--4-2---1--2-4------------|
|-----------------------------0-----2-3-|


 ~~~~~~
   +Q.      +S   S  S  S  S  S  S  S  S  S  S  S  S  S  S  S  S S
|---------------12----------------12-14-15p14p12-14p12p10-12p10S9-|
|-(15)-----(15)----15-14-12h14h15---------------------------------|
|-----------------------------------------------------------------|
|-----------------------------------------------------------------|
|-----------------------------------------------------------------|
|-----------------------------------------------------------------|
|
|   E  E E   E      E     E     E     E     E     E     E     E
|-----------------------------------------------------------------|
|-----------------------------------------------------------------|
|-----------------------------------------------------------------|
|---5--4-2--------------------------------------------------------|
|------------5------4-----2-----1-----2-----4---------------------|
|-------------------------------------------------0-----2-----3---|


  S S S S S S S S S    S S S S  E.        +E     +Q.
|-7-9-7s5-------------------------------------------------|
|---------8p5-7h8p7p===5-------[7]pb9====([7])--([7])-----|
|------------------------7p6p4----------------------------|
|---------------------------------------------------------|
|---------------------------------------------------------|
|---------------------------------------------------------|
|
| PM-----------------|
| e   e   e   e   e  E   E   E         E   E      E    E
|---------------------------------------------------------|
|---------------------------------------------------------|
|---------------------------------------------------------|
|-5---4---2--------------5---4---------2------------------|
|-------------5---4--2---------------------5------4----2--|
|---------------------------------------------------------|


                       \2
    +Q.       +Q.     +H.                  W
|----------------------------------------|-------||
|--([7])r====([7])---([7])---------------|-------||
|----------------------------------------|-------||
|----------------------------------------|-------||
|----------------------------------------|-------||
|----------------------------------------|-------||
|
|    E    E    E   E   E   E E E E E E E   W.
|----------------------------------------|-------||
|----------------------------------------|-------||
|----------------------------------------|-------||
|----5----4----2-------------------------|-2-----||
|------------------5---4---2-1-2-4-------|-2-----||
|----------------------------------0-2-3-|-0-----||


   Interlude
    PM--------------------------------------------|
    q  e e e e e e e e e e   q  e e e e e e e e e e 10x
||-------------------------|-------------------------||
||o------------------------|------------------------o||
||-------------------------|-------------------------||
||-------------------------|-------------------------||
||o------------------------|------------------------o||
||--0--0-0-0-0-3-2-0-3-2-0-|-0--0-0-0-0-3-2-0-3-2-0--||


                                   D.S. al Coda
  PM-----------------------------------|
  q  e e e e e e e e e e   e e e e e e q  E Q.
|------------------------|-----------------------||
|------------------------|-----------------------||
|------------------------|------------------4----||
|------------------------|------------------4----||
|------------------------|------------------2----||
|-0--0-0-0-0-3-2-0-3-2-0-|-0-0-0-0-0-0-2---------||


  &
         PM--------|        PM--------------|
   q   e e e e e e e  Q.    e e e e e e e e e  Q.
|-------------------------|--------------------0---|
|-------------------------|--------------------0---|
|---------------------5---|--------------------9---|
|-(2)-----------------5---|--------------------9---|
|-(2)-----------------3---|--------------------7---|
|-(0)--0-0-0-0-3-2-0------|-0-0-0-0-0-0-3-2-0------|


        PM--------|                      ~~
   Q.   e e e e e e  Q.    Q.     Q.     H.
|------------------------|---------------------*|
|------------------------|---------------------*|
|--------------------5---|-4------4------9\----*|
|--2-----------------5---|-4------4------9\----*|
|--2-----------------3---|-2------6------7\----*|
|--0----0-0-0-3-2-0------|---------------------*|



Duration Legend
---------------
W - whole; H - half; Q - quarter; E - 8th; S - 16th; T - 32nd; X - 64th; a - acciaccatura
+ - note tied to previous; . - note dotted; .. - note double dotted
Uncapitalized letters represent notes that are staccato (1/2 duration)
Irregular groupings are notated above the duration line
Duration letters will always appear directly above the note/fret number it represents the
duration for.  Duration letters with no fret number below them represent rests.  Multi-
bar rests are notated in the form Wxn, where n is the number of bars to rest for.  Low
melody durations appear below the staff

Tablature Legend
----------------
 h   - hammer-on
 p   - pull-off
 b   - bend
 pb  - pre-bend
 r   - bend release (if no number after the r, then release immediately)
 /\  - slide into or out of (from/to "nowhere")
 s   - legato slide
 S   - shift slide
 - natural harmonic
[n]  - artificial harmonic
n(n) - tapped harmonic
 ~   - vibrato
 tr  - trill
 T   - tap
 TP  - trem. picking
 PM  - palm muting
\n/  - tremolo bar dip; n = amount to dip
 \n  - tremolo bar down
 n/  - tremolo bar up
/n\  - tremolo bar inverted dip
 =   - hold bend; also acts as connecting device for hammers/pulls
 <> - volume swell (louder/softer)
 x   - on rhythm slash represents muted slash
 o   - on rhythm slash represents single note slash

Misc Legend
-----------
 |  - bar
||  - double bar
||o - repeat start
o|| - repeat end
*|  - double bar (ending)
 :  - bar (freetime)
 $  - Segno
 &  - Coda
Tempo markers -  = BPM(8/16=s8/s16), where s8 = swing 8ths, s16 = swing 16ths

Related for Disciples Of Hell tab