Guitaretab - guitar tabs
Song name
# A B C D E F G H I J K L M N O P Q R S T U V W X Y Z

Yngwie Malmsteen - Golden Dawn tab

#----------------------------------PLEASE NOTE---------------------------------#
#This file is the author's own work and represents their interpretation of the #
#song. You may only use this file for private study, scholarship, or research. #
#------------------------------------------------------------------------------#

GOLDEN DAWN
As recorded by Yngwie Malmsteen
(From the 1992 Album FIRE & ICE)

Transcribed by Matt52087
	

Music by Yngwie Malmsteen

Gtr I (Eb Ab Db Gb Bb Eb) - 'Guitar 1'
Gtr II (Eb Ab Db Gb Bb Eb) - 'Guitar 2'

 Intro
  Moderate Waltz Q=152
  $
  Em            D                           G/B
 3/4
  Gtr I
   Q.    E Q     Q.   E Q     H.             H    Q
|----------7--|-------------|-------------|----------|
|-^8----10----|-10----8-7---|-------------|----------|
|-^9----------|-------------|-9-----------|--7-------|
|-^9----------|-------------|-------------|----------|
|-^7----------|-------------|-------------|----------|
|-------------|-------------|-------------|----------|
|
| Gtr II
|  Q.    E Q     Q.   E E E   E  E E E Q     H    Q
|-^0-----2-3--|-^2----0-----|--------0----|----------|
|-^0----------|-^3------3---|----------0--|-^3-------|
|-^0----------|-^2--------0-|------0------|-^0-------|
|-^2----------|-^0----------|----2--------|-^0-------|
|-^2----------|-------------|-3-----------|-^2-------|
|-^0----------|-------------|-------------|----------|


  Am
  Q.   E Q     E Q   E Q     H.             H       Q
|------------|-------------|--------------|------------|
|-1----0-----|-0h1---0-----|--------------|------------|
|--------2---|---------2---|-2------------|------------|
|------------|-------------|--------------|------------|
|------------|-------------|--------------|------------|
|------------|-------------|--------------|------------|
|
| Q.   E E E   E E E E E E   E  E E E E E   E E E E Q
|------------|-------------|--------2-----|-------0----|
|-1----0-----|---1p0-------|----------3---|-----1---1--|
|--------0---|-------2-----|------2-----2-|---2--------|
|----------2-|---------2---|----0---------|-3----------|
|-0----------|-------------|--------------|------------|
|------------|-3---------3-|-2------------|------------|


                                             To Coda
  Em            D                           G/B
   Q.    E Q     Q.   E Q     H.             H    Q
|----------7--|-------------|-------------|----------|
|--8----10----|-10----8-7---|-------------|----------|
|-------------|-------------|-9-----------|--7-------|
|-------------|-------------|-------------|----------|
|-------------|-------------|-------------|----------|
|-------------|-------------|-------------|----------|
|
|  Q.    E Q     Q.   E E E   E  E E E Q     H    Q
|-^0-----2-3--|-^2----0-----|--------0----|----------|
|-^0----------|-^3------3---|----------0--|-^3-------|
|-^0----------|-^2--------0-|------0------|-^0-------|
|-^2----------|-^0----------|----2--------|-^0-------|
|-^2----------|-------------|-3-----------|-^2-------|
|-^0----------|-------------|-------------|----------|


  Am                                         B
  E E H         E E E E E E   Q   Q  E S S    H.
|-------------|-------6-----|--------------|--------||
|-------------|---5-8---8-5-|-7------------|--4-----||
|-5p4-5-------|-6-----------|-----7--5h7p5-|--------||
|-------------|-------------|--------------|--------||
|-------------|-------------|--------------|--------||
|-------------|-------------|--------------|--------||
|
| Q.    E E E   E E E E E E   E E Q  Q        H.
|-------------|-------------|--------------|-^7-----||
|-1-----0-----|-----5-8-----|--------7-----|-^7-----||
|---------2---|---6-----6---|-----9--------|-^8-----||
|-----------2-|-8---------8-|---9----------|-^9-----||
|-0-----------|-------------|--------------|-^9-----||
|-------------|-------------|-7------------|-^7-----||


  (Em)                          (Am)
  Q   E E E E    E  E E E E E   E E Q   Q
|-------------|---------------|-----5---8---|
|-------------|---------------|-------------|
|-------------|-------4-----4-|-5-----------|
|-------------|--3--6---3-6---|---7---------|
|-----5---2-5-|---------------|-------------|
|-------4-----|---------------|-------------|
|
| E E E E E E   +Q    E E E E   E E E E E E
|---------7---|-----------7---|---------5---|
|-----------6-|-(6)-----6---6-|-------5---5-|
|-----7-------|-------7-------|-----5-------|
|---6---6-----|---------------|---7---------|
|-------------|---------------|-0-----------|
|-0-----------|---------------|-------------|


   E E  E E  Q      E  E E  E E  E    E  E E  E  E E
|-12---13---12---|-------8-11-8----|-----------------|
|----------------|----10-----------|-10--------------|
|----------------|-11-----------11-|----11-8-11----9-|
|----------------|-----------------|------------10---|
|----------------|-----------------|-----------------|
|----------------|-----------------|-----------------|
|
|  E Q    E  E E    E  E E  E E  E    E  E E  E  E E
|------------5---|------------8----|-------------4---|
|---------5----5-|----------7----7-|----------4----4-|
|----------------|-------8---------|-------5---------|
|----7-----------|-----7-----------|-----7-----------|
|--0-------------|--0--------------|--0--------------|
|----------------|-----------------|-----------------|


  (Em)
  E E Q   +E  E   E E H         +Q     E  E  E  E
|---------------|-------------|-------12-13-10-13-|
|---------------|-------------|-------------------|
|---------------|-------------|-------------------|
|-7---9---(9)-7-|-6-7-9-------|-(9)---------------|
|---------------|-------------|-------------------|
|---------------|-------------|-------------------|
|
| E E E E  E  E   E E E E E E    E  E  Q     E  E
|----------0----|---------0---|--------------7----|
|-------0-----0-|-------0---0-|-----------------6-|
|-----2---------|-----1-------|--------7----------|
|---2-----------|---2---------|-----6-------------|
|---------------|-------------|-------------------|
|-0-------------|-0-----------|--0----------------|

[ Tab from: http://www.guitaretab.com/y/yngwie-malmsteen/126920.html ]
                        (Am)
   E  E   E   E  E  E    E  E  Q    E  E    Q   E  Q   E
|----13------13----13-|-12---------------|---------------|
|-13----(12)----10----|-------13---12----|-13-----10-----|
|---------------------|----13---------13-|---------------|
|---------------------|------------------|---------------|
|---------------------|------------------|---------------|
|---------------------|------------------|---------------|
|
|  E  E   Q      Q       E  E  E E  E  E    E E E  E E E
|----------------4----|-------------5----|-----------5---|
|---------------------|----------5-----5-|---------5---5-|
|---------7-----------|--------5---------|------5--------|
|-----6---------------|-----7------------|----7----------|
|---------------------|--0---------------|--0------------|
|--0------------------|------------------|---------------|


                               (Em)
  Q   E E E E    E E E E Q     H.             E E E E E  E
|---------8-8-|--------------|--------------|---------------|
|-------7-----|-10p7---------|--------------|-----8-8-5-----|
|-----8-------|------8p5-----|--------------|---6-------(6)-|
|-------------|----------7---|-9------------|-8-------------|
|-------------|--------------|--------------|---------------|
|-------------|--------------|--------------|---------------|
|
| E E E E E E    E E E E E E   E  E E E E E   E E E E E  E
|---------8---|----------4---|----------0---|-----3---------|
|-------7---7-|--------4---4-|--------0---0-|---------5-----|
|-----8-------|------5-------|------2-------|---3-----------|
|---7---------|----7---------|----2---------|-5-----5----5--|
|-0-----------|--0-----------|--------------|---------------|
|-------------|--------------|-0------------|---------------|


              D.S. al Coda
  B
   a  H.              +H.
|------------------|----------||
|-10s12------------|-(12)-----||
|------------------|----------||
|------------------|----------||
|------------------|----------||
|------------------|----------||
|
|     E  E E E E E     H.
|--------------7---|-^-7------||
|------------7---7-|-^-7------||
|----------9-------|-^-8------||
|--------9---------|-^-9------||
|------------------|-^-9------||
|-----7------------|-^-7------||


  &
  Am
   Q.    E Q    Q.    E Q     Q.    E Q     H.
|-------------|-------------|-------------|--------------|
|--1-----0----|-1-----0-----|-1-----0-----|--------------|
|----------2--|---------2---|---------2---|-2------------|
|-------------|-------------|-------------|--------------|
|-------------|-------------|-------------|--------------|
|-------------|-------------|-------------|--------------|
|
|  Q   Q   Q    Q   E E E E   Q   E E E E   Q   Q  a Q
|-------------|-------------|-------------|--------------|
|-^1---0------|-----1-0-----|-----1-0-----|--------------|
|-^2-------2--|---------2---|---------2---|--------------|
|-^2----------|-----------0-|-----------0-|--------------|
|-^0----------|-------------|-------------|--------------|
|-------------|-3-----------|-2-----------|-1---3--3s5---|


 Free Time
  (Em)
                                  4/4                    2/4
  H       E E   E  E  E  E  E  E    E  E  E  E  H          E  E  a  E E
|-------------:------------------:----------------------:----10-------8-:
|-------------:---------10-10-12-:-12-------------------:---------------:
|-------------:-9-11-12----------:----11-11-12-12-------:---------------:
|-----------9-:------------------:----------------------:-12----12p10---:
|-------------:------------------:----------------------:---------------:
|-------------:------------------:----------------------:---------------:
|
| E E E E E E   E  E  Q     E  E    E  E  E  E  E E E E    E  E     E E
|-------------:------------------:----------------------:---------------:
|-------------:-------------0----:--------0---------0---:---------------:
|-----------0-:-------0----------:--0-----------0-------:--0--------0---:
|-----4---4---:-4--4-----------4-:-----4-----4----4---4-:-----4-------4-:
|---2---2-----:------------------:----------------------:---------------:
|-0-----------:------------------:----------------------:---------------:


 3/4            4/4
                            |-3-|                |-3-|
  E  E  E E Q     H.        S S S E    E  Q  E E E E E E   +E  +H     E Q
|--------------:----------------3-5-:-(3)h5--3p0-2h3p2-0-:-(0)-(0)---------*|
|--------------:--------------5-----:--------------------:-----------------*|
|--------------:------------4-------:--------------------:-----------------*|
|-9-10-10-7-7--:--9-----------------:--------------------:-----------------*|
|--------------:--------------------:--------------------:-----------------*|
|--------------:--------------------:--------------------:-----------------*|
|
| Q     Q   Q    +Q   Q  H             W                    W
|-------0------:--------------------:--------------------:-----------------*|
|-0------------:--------------------:--------------------:-----------------*|
|--------------:--------------------:--------------------:-----------------*|
|--------------:--------------------:--------------------:-----------------*|
|--------------:--------------------:--------------------:-----------------*|
|-----------3--:-(3)----------------:--------------------:-----------------*|



Duration Legend
---------------
W - whole; H - half; Q - quarter; E - 8th; S - 16th; T - 32nd; X - 64th; a - acciaccatura
+ - note tied to previous; . - note dotted; .. - note double dotted
Uncapitalized letters represent notes that are staccato (1/2 duration)
Irregular groupings are notated above the duration line
Duration letters will always appear directly above the note/fret number it represents the
duration for.  Duration letters with no fret number below them represent rests.  Multi-
bar rests are notated in the form Wxn, where n is the number of bars to rest for.  Low
melody durations appear below the staff

Tablature Legend
----------------
 h   - hammer-on
 p   - pull-off
 b   - bend
 pb  - pre-bend
 r   - bend release (if no number after the r, then release immediately)
 /\  - slide into or out of (from/to "nowhere")
 s   - legato slide
 S   - shift slide
 - natural harmonic
[n]  - artificial harmonic
n(n) - tapped harmonic
 ~   - vibrato
 tr  - trill
 T   - tap
 TP  - trem. picking
 PM  - palm muting
\n/  - tremolo bar dip; n = amount to dip
 \n  - tremolo bar down
 n/  - tremolo bar up
/n\  - tremolo bar inverted dip
 =   - hold bend; also acts as connecting device for hammers/pulls
 <> - volume swell (louder/softer)
 x   - on rhythm slash represents muted slash
 o   - on rhythm slash represents single note slash

Misc Legend
-----------
 |  - bar
||  - double bar
||o - repeat start
o|| - repeat end
*|  - double bar (ending)
 :  - bar (freetime)
 $  - Segno
 &  - Coda
Tempo markers -  = BPM(8/16=s8/s16), where s8 = swing 8ths, s16 = swing 16ths

Related for Golden Dawn tab
×
Golden Dawn