Song name
# A B C D E F G H I J K L M N O P Q R S T U V W X Y Z

Yngwie Malmsteen - Save Our Love tab

#----------------------------------PLEASE NOTE---------------------------------#
#This file is the author's own work and represents their interpretation of the #
#song. You may only use this file for private study, scholarship, or research. #
#------------------------------------------------------------------------------#

SAVE OUR LOVE
As recorded by Yngwie Malmsteen
(From the 1990 Album ECLIPSE)

Transcribed by Starnouf
	

Words and Music by Yngwie Malmsteen

Am
x 0 2 2 1 x
	
F
1 3 3 2 1 1
	
E7
0 2 2 1 3 x
	
F/E
0 3 3 2 1 1
Dm
x x 0 2 3 1
	
Am/E
0 0 2 2 1 x
	
Bm7b5
x 2 3 4 3 5
	
E/G#
4 7 6 x x x
C5
x 3 5 5 x x
	
G/B
x 2 5 4 3 x
	
D/F#
2 5 4 2 x x
	
C/G
3 x 5 4 3 x
F5
1 3 3 x x x
	
A/C#
x 4 2 2 2 0
	
Gm
3 1 0 3 3 3
	
Esus4
x x 2 2 0 x
G5
3 5 5 0 x x

Gtr I (E A D G B E) - 'Accoustic'
Gtr II (E A D G B E) - 'Keyboard'
Gtr III (E A D G B E) - 'Korg Gtr Synth (flute)'
Gtr IV (E A D G B E) - 'Electric gtr'
Gtr V (E A D G B E) - 'Gtr solo'

 Intro
  Adagio Q=56
  Am                                         F
 4/4
  Gtr II
  W                                          W
  |                                          |
  /                                          /

  Gtr III
                                                                     ~~~
  Q       S. X X T T S E.     S E.    T  T   S S  S S  E. S Q       +E.     S
|------------------5-7-8------7-8-----8-10-|-8-7----------7-8-------(8)-------|
|----------------5-------------------------|-----10-8-10----------------------|
|--------------5---------------------------|----------------------------------|
|------------7-----------------------------|----------------------------------|
|------------------------------------------|----------------------------------|
|------------------------------------------|----------------------------------|
|
| Gtr I
| S S S S Q            S  S S S S S S S      S S  S S  Q    S S S S  S  S S S
|------------------------------------------|----------------------------------|
|-------0-1-------------------0-1p0--------|--------0--1----------0--1--0-----|
|-----2---------------------2-------2------|------2-------------2---------2---|
|---2---------------------2-----------2----|---3--------------3-------------3-|
|-0--------------------0-------------------|----------------------------------|
|------------------------------------------|-1--------------1-----------------|


  Am
   W
   |
   /

                             |--3--|    |-3--|  |-3--|
   T  T  T  T  T  T  T  T  S T  T  T T  X  X X  T  T T  S E   E.      S  S
|-12-13-10-13----13----13------------8-12p10p8--------------------------17-|
|-------------13----12----10-9-10-12-----------12-10-9-10------------------|
|---------------------------------------------------------9----------14----|
|--------------------------------------------------------------------------|
|--------------------------------------------------------------------12-14-|
|--------------------------------------------------------------------------|
|
|  S     S     S     S     Q                            S S S S  S S  S  S
|--------------------------------------------------------------------------|
|--------------------0-----1----------------------------------0--1p0-------|
|--------------2--------------------------------------------2---------2----|
|--------2------------------------------------------------2--------------2-|
|--0----------------------------------------------------0------------------|
|--------------------------------------------------------------------------|


  F
   W
   |
   /

   ~~~
   Q.         S  S  E.      S  E.    S
|-17------------15-13------12-10-----8--||
|---------------------------------------||
|---------------16-14------12-10-----9--||
|---------------------------------------||
|---------------------------------------||
|---------------------------------------||
|
|  S  S S S Q       S  S S  S  S S S S
|---------------------------------------||
|---------0-1---------------0--1p0------||
|-------2----------------2---------2----||
|-----3----------------3-------------3--||
|---------------------------------------||
|--1----------------1-------------------||


 Verse
  Am
   W
   |
   /

   S  T T  E    Q   +E     S S S  E.
|-12-10p8--------------------------------|
|---------10--------------10-8-----------|
|-12---------------------------9---------|
|--------------10--(10)----------10------|
|----------------------------------------|
|----------------------------------------|
|
|  S  S    S S  Q    S  S  S S S  S  S S
|----------------------------------------|
|------------0--1------------0-1p=0------|
|----------2---------------2---------2---|
|-----2-----------------2--------------2-|
|--0-----------------0-------------------|
|----------------------------------------|


  F                            E7
  W                            H            H
  |                            |            |
  /                            /            o

  W                            W
|----------------------------|---------------------------|
|----------------------------|---------------------------|
|----------------------------|---------------------------|
|----------------------------|---------------------------|
|----------------------------|---------------------------|
|----------------------------|---------------------------|
|
| S S S S Q  S S S S S S S S   S S S S E. S E. S E S S
|----------------------------|---------------------------|
|-------0-1--------0-1-0-----|--------------3--6-5-3-3---|
|-----2----------2-------2---|-----1-2-4--5--------------|
|---3----------3-----------3-|---2-2-0-0-----------------|
|----------------------------|---------------------------|
|-1----------1---------------|-0------------4------------|


  Am                        Am
     H           H          W
     |           |          |
     /           o          /

  Gtr I
                     ~
  a  S  E. +E  E e e Q      S S S S Q  S S S S S S S S
|------------------0----||-----------------------------|
|-3h=5--5--(5)---0------||o-------0-1--------0-1-0-----|
|--------------------4--||------2----------2-------2---|
|-----------------------||----2----------2-----------2-|
|---(0)-----------------||o-0----------0---------------|
|----------------0-2-4--||-----------------------------|


  F
  W
  |
  /

  S S S S Q  S S S S S S S S
|----------------------------|
|-------0-1--------0-1-0-----|
|-----2----------2-------2---|
|---3----------3-----------3-|
|----------------------------|
|-1----------1---------------|


                                                 $
  E7                         Am
  H            H             H           H
  |            |             |
  /            o             /

                               ~~            ~
  S S S S E. S E. a S E. S   S E. +E   E E E E E
|--------------------------|---------------0-----||
|--------------3--5h6-5--3-|-3-5--(5)\---0-------||
|-----1-2-4--5-------------|-----------------4---||
|---2---0------------------|---------------------||
|--------------------------|---------------------||
|-0------------4-----------|-5-----------0-2-4---||


  F               F/E
  H               H
  |               |
  /               /

  S S S S S S S S S S S S S S S S
|-------5---5-----------5---------|
|-----6-------6-------6-------6---|
|---5-----------5---5-------5---5-|
|---------------------------------|
|-8-------8-------8-------7-------|
|---------------------------------|


  Dm
  W
  |
  /

  S S S S S S S S S S S S E S S
|-----------5-------------------|
|-------6-----6---------6-------|
|-----7---------7-----7---------|
|---7---------------7---------5-|
|-5-------5-------5-------5-7---|
|-------------------------------|


  F       Am/E  Dm                Bm7b5    E/G#
  Q       Q     Q       Q         H        H
  |       |     |       |         |        |
  /       /     /       o         /        /

  S S S S S S E S S S S S S S S   S S E Q  H
|-------5-----5-----5-----------|----------0----||
|-----6---------------6-----6---|-----6----0----||
|---5-------5-------------------|---------------||
|-----------------7-------7-----|---7-----------||
|-8-------7-----5---------------|---------------||
|-----------------------8-----8-|-7-----5--4----||


 Chorus
                                                To Coda
  C5   G/BAm   E/G#     C/G  F5   D/F#   C/G
  H    Q  Q    H.       Q    H    H      W
  |    |  |    |        |    |    |      |
  /    /  /    /        /    /    /      /

  Gtr IV
                                                 PM----|
  H    Q  Q    H     Q  Q    H    H      H.      S S S S
|------------|-------------|-----------|-----------------||
|------------|-------------|-----------|-----------------||
|------------|-------------|-----------|-----------------||
|-5----------|-------2-----|-3----0----|-0-------5-3-2---||
|-3----2-----|-------0-----|-3----0----|---------------5-||
|---------5--|-4--------3--|-1----2----|-3---------------||


                             1.
  C5   G/BAm   E/G#     C/G  F5   D/F#   G5   E/G#
  H    Q  Q    H.       Q    H    H      H    H
  |    |  |    |        |    |    |      |    |
  /    /  /    /        /    /    /      /    /

  H    Q  Q    H     Q  Q    H    H      H    H
|------------|-------------|-----------|-----------|
|------------|-------------|-----------|-----------|
|------------|-------------|-----------|-----------|
|-5----------|-------2-----|------0----|-0----2----|
|-3----2-----|-------0-----|-3----0----|------2----|
|---------5--|-4--------3--|-1---------|-3----4----|


  Am                           F
  W                            W
  |                            |
  /                            /

  Gtr I
  S S S S Q  S S S S S S S S   S S S S Q  S S S S S S S S
|----------------------------|----------------------------|
|-------0-1--------0-1p0-----|-------0-1--------0-1p0-----|
|-----2----------2-------2---|-----2----------2-------2---|
|---2----------2-----------2-|---3----------3-----------3-|
|-0----------0---------------|----------------------------|
|----------------------------|-1----------1---------------|


  Am                           F
  W                            W
  |                            |
  /                            /

  S S S S Q  S S S S S S S S   S S S S Q  S S S S S S S S
|----------------------------|-----------------------------||
|-------0-1--------0-1-0-----|-------0-1--------0h1p0-----o||
|-----2----------2-------2---|-----2----------2-------2----||
|---2----------2-----------2-|---3----------3-----------3--||
|-0----------0---------------|----------------------------o||
|----------------------------|-1----------1----------------||


                            Guitar Solo
  2.
  F5   D/F#   G5             C5              G/B   Am
  H    H      W               H               Q    Q
  |    |      |               |               |    |
  /    /      /               /               /    /

  Gtr V
                              ~~              ~~
  W           W         a     Q   +S  S S  S  E  E E  S.  T
|-----------|-------------||--------------------------------|
|-----------|-------------||--------------------------------|
|-----------|-------------||----------7-9-10-12-10-9--------|
|-----------|-----------5S||=10--(10)----------------12--10-|
|-----------|-------------||--------------------------------|
|-----------|-------------||--------------------------------|
|
| Gtr IV
| H    H      H    H          H               Q    Q
|-----------|-------------||--------------------------------|
|-----------|-------------||--------------------------------|
|-----------|-------------||--------------------------------|
|------0----|-0----0------||--5-----------------------------|
|-3----0----|-------------||--3---------------2-------------|
|-1---------|-3----3------||-----------------------5--------|


  E/G#           Am  C/G    F5                 D/F#
   H             Q    Q     H                   H
   |             |    |     |                   |
   /             /    /     /                   /

                                    \1.5/
   ~~              ~    ~~~~~~
   Q  S  S  S  S E E  E E   Q  S S  S      +S   Q  S  E.
|-------------------------|---------------------------------|
|-------------------------|---------------------------------|
|-------------10p9-7------|---------------------------------|
|-12--9-10-12--------10-9-|-7--7-9-10-----(10)s12----12b14r=|
|-------------------------|---------------------------------|
|-------------------------|---------------------------------|
|
|  H             Q    Q     H                   H
|-------------------------|---------------------------------|
|-------------------------|---------------------------------|
|-------------------------|---------------------------------|
|----------------2--------|-3-------------------0-----------|
|----------------0--------|-3-------------------0-----------|
|--4------------------3---|-1-------------------2-----------|


  G5                E/G#
    H               H
    |               |
    /               /

           ~~~~~~~~
   +T   T  E.  +Q   X  X  X X  X X  X  X  X  X  X  X  X  X  X  X T  X X  X  X X  X  E
|-------------------------------------------12h13p12p10---------------------------------|
|--------------------------------9-10h12h13-------------13p12p10-9----------------------|
|---------------------------9h10-----------------------------------10p9-----------------|
|-(12)p10-12--(12)--9h10h12---------------------------------------------12p10p9---------|
|-------------------------------------------------------------------------------12-11---|
|---------------------------------------------------------------------------------------|
|
|                                                                PM-------------------|
|   H.                                                           S       S          S S
|---------------------------------------------------------------------------------------|
|---------------------------------------------------------------------------------------|
|---------------------------------------------------------------------------------------|
|---0------------------------------------------------------------5-------3----------2---|
|-------------------------------------------------------------------------------------5-|
|---3-----------------------------------------------------------------------------------|


  Am
   W
   |
   /

   Q.         S  T      +T   +Q.           E
|----------------------------------------------|
|---------------12b13==(12)r(12)---------------|
|-14-------------------------------------------|
|----------------------------------------------|
|-12-------------------------------------------|
|----------------------------------------------|
|
| Gtr I
|  S  S S S Q                 S  S S S S S S S
|----------------------------------------------|
|---------0-1------------------------0-1p0-----|
|-------2--------------------------2-------2---|
|-----2--------------------------2-----------2-|
|--0--------------------------0----------------|
|----------------------------------------------|


  F
  W
  |
  /

                                                                          ~~~
           |--------6---------|           |--3--|    |---3----|
  S  T  T  S  T  T      +T   +T   +X   X  X  X  X E  T     T  T  X  X  T  E.     S  E.
|---------10-10h12b13==(12)r(12)-(12)-10------------17b19p12----------12S19--------20-------|
|---10h12--------------------------------13p12p10------------13----13-----------------------|
|---------------------------------------------------------------14--------------------------|
|-------------------------------------------------------------------------------------------|
|-------------------------------------------------------------------------------------------|
|-------------------------------------------------------------------------------------------|
|
| S  S     S     S                 Q                             S        S  S S S  S  S S
|-------------------------------------------------------------------------------------------|
|----------------0-----------------1-------------------------------------------0-1p=0-------|
|----------2-----------------------------------------------------------------2---------2----|
|----3--------------------------------------------------------------------3--------------3--|
|-------------------------------------------------------------------------------------------|
|-1--------------------------------------------------------------1--------------------------|


  Am
    W
    |
    /

                                           |--3--|  |---------------11:8----------------|
   +E     +T   T      +T   T  T  T  S.  T  T  T  T  T  T  T    T  T  T    T  T  T    T  T  T  T  T  T  T  T  T T
|-(20)---(20)-20pb22r(20)-19-20p19-17-----19----------17------------15---------13------------12----------10----------|
|--------------------------------------17----17----------15-------------------------12----------10-------------------|
|-----------------------------------------------19s17---------17s16------16s14---------14s12-------12s10----10s9b10==|
|--------------------------------------------------------------------------------------------------------------------|
|--------------------------------------------------------------------------------------------------------------------|
|--------------------------------------------------------------------------------------------------------------------|
|
|   S  S   S           S      Q                     S       S          S          S        S     S     S     S
|--------------------------------------------------------------------------------------------------------------------|
|----------------------0------1---------------------------------------------------0--------1-----0-------------------|
|----------2-----------------------------------------------------------2-------------------------------2-------------|
|------2----------------------------------------------------2------------------------------------------------2-------|
|---0-----------------------------------------------0----------------------------------------------------------------|
|--------------------------------------------------------------------------------------------------------------------|


  F
   W
   |
   /

            ~
                     |-3-| |-3-| |-3-|      |-3--| |-3-|                  |-3-|
  +S  +T  T E    X X X X X T T T S S S T  T T  T T T T T  X X X X X X X X T T T T T S
|----------------------------5-7s8-7-8---10-8h10p8p7-8p7-------------------------------||
|--------------------------5-----------------------------10p8p6s5h6p5------------------||
|-(9)r(9)-5-5---------------------------------------------------------7p5s4------------||
|---------------10p7--------------------------------------------------------7p5--------||
|--------------------8p7s5------------------------------------------------------8p7-5--||
|--------------------------------------------------------------------------------------||
|
|  S   S    S S  Q                     S    S      S      S       S       S     S   S
|--------------------------------------------------------------------------------------||
|-------------0--1----------------------------------------0-------1p======0------------||
|-----------2--------------------------------------2----------------------------2------||
|------3------------------------------------3---------------------------------------3--||
|--------------------------------------------------------------------------------------||
|--1-----------------------------------1-----------------------------------------------||


  Dm                                                               A/C#
   H                                                                 H
   |                                                                 |
   /                                                                 /

                                                              ~~~
               |--3--|  |------6-------|  |--3--|                    |------------3------------|
   X  X  X  X  T  T  T  T  T  T  T  T  T  T  T  T  T  T  +T   S.     E    T  T  T  T  T  T  T  T  S  S.       +S     X  X
|----------10-13p10-13s17-13-------------13------------------------/17---16-18-15-18----18----18--------------------17p13--|
|-------10-------------------15-------------15---------------------------------------18----17----15-15tr14---(15)----------|
|----10-------------------------14-------------14--------------------------------------------------------------------------|
|-12-------------------------------15p14----------15s14-(14)-12------------------------------------------------------------|
|--------------------------------------------------------------------------------------------------------------------------|
|--------------------------------------------------------------------------------------------------------------------------|
|
|  S           S        S        S        S        S      S      S   S S        S        S        S  S     S      S
|--------------------------------0--------1-------------------------------------------------------0------------------------|
|-----------------------3--------------------------3-------------------------------------2-----------2---------------------|
|--------------2------------------------------------------2---------------------2--------------------------2---------------|
|--0-------------------------------------------------------------0-----2------------------------------------------2--------|
|--------------------------------------------------------------------4-----------------------------------------------------|
|--------------------------------------------------------------------------------------------------------------------------|


  Dm                                                               A/C#
   H                                                                 H
   |                                                                 |
   /                                                                 /

                                                                                          |--3--|
   X  X  X  X  X  X      +T   +E     +S   E        +T   X      +X   +S   T  T  T  T  T  T T  T  T  T  T  T  T  T  T
|----------13-17s20b22==(20)-(20)---(20)-21pb22r==(21)-21pb22r(21)-(21)-18-21-------18------15----------------12s17-|
|-15----15--------------------------------------------------------------------20-20----17------14-14h17----14-------|
|----14-------------------------------------------------------------------------------------------------15----------|
|-------------------------------------------------------------------------------------------------------------------|
|-------------------------------------------------------------------------------------------------------------------|
|-------------------------------------------------------------------------------------------------------------------|
|
|  S           S               S  S   S   S     S   S                S   S     S     S    S        S     S     S
|---------------------------------0---1---------------------------------------------------0-------------------------|
|------------------------------3----------3------------------------------------------2-------------2----------------|
|--------------2--------------------------------2------------------------------2-------------------------2----------|
|--0------------------------------------------------0--------------------2-------------------------------------2----|
|--------------------------------------------------------------------4----------------------------------------------|
|-------------------------------------------------------------------------------------------------------------------|


  Gm
   W
   |
   /

                                    ~~~~~~~
                                 |3-|
   Q   +S   E     S  S  T  T  S  S  T  +E   +S   T  T
|-18--(18)-18b20r18-17h18p17-15-17-17-(17)-(17)\---17s=||
|------------------------------------------------------||
|------------------------------------------------------||
|------------------------------------------------------||
|------------------------------------------------------||
|------------------------------------------------------||
|
|  W
|------------------------------------------------------||
|------------------------------------------------------||
|------------------------------------------------------||
|------------------------------------------------------||
|------------------------------------------------------||
|------------------------------------------------------||


                                                                          D.S. al Coda
  Esus4                                                                        E7
   H                                                                             H
   |                                                                             |
   /                                                                             /

   X  X  X  X  X  X  X  X  S  X  X  X  X  X  X  T  X  X  X  X  X  X  T T  T     +Q.   E
|-19----------12-12h17p12----------12-12h17p12----------12-12h17p12------22b24-(22)-----||
|----12----12-------------12----12-------------12----12-------------12------------------||
|-------14-------------------14-------------------14------------------------------------||
|---------------------------------------------------------------------------------------||
|---------------------------------------------------------------------------------------||
|---------------------------------------------------------------------------------------||
|
|  S           S           S  S           S        S           S       S         H
|---------------------------------------------------------------------------------------||
|--------------------------0-----------------------------------0-----------------3------||
|--------------2--------------2--------------------2-------------------2---------1------||
|--2--------------------------------------2--------------------------------------2------||
|--------------------------------------------------------------------------------2------||
|--------------------------------------------------------------------------------0------||


    &
    C5   G/B Am   E/G#   Am C/G  F      D/F#   G5
    H    Q   Q    H      Q  Q    H      H      W
    |    |   |    |      |  |    |      |      |
    /    /   /    /      /  /    /      /      /

    Gtr IV
                    ~~      ~                          PM----|
    H    E E Q    E Q.   Q  Q    E E Q  H      H.      S S S S   3x
||-----------0--|--------------|-------------|-------------------||
||o--------3-1--|---5----------|---1---------|------------------o||
||--5----0---2--|-4-4----2-----|---2----2----|-0-----------------||
||--5--------2--|-2------2-----|-3---3--0----|-0-------5-3-2-----||
||o-3----2---0--|--------0-----|-3---3--0----|---------------5--o||
||--------------|-4---------3--|-1---1--2----|-3-----------------||



Duration Legend
---------------
W - whole; H - half; Q - quarter; E - 8th; S - 16th; T - 32nd; X - 64th; a - acciaccatura
+ - note tied to previous; . - note dotted; .. - note double dotted
Uncapitalized letters represent notes that are staccato (1/2 duration)
Irregular groupings are notated above the duration line
Duration letters will always appear directly above the note/fret number it represents the
duration for.  Duration letters with no fret number below them represent rests.  Multi-
bar rests are notated in the form Wxn, where n is the number of bars to rest for.  Low
melody durations appear below the staff

Tablature Legend
----------------
 h   - hammer-on
 p   - pull-off
 b   - bend
 pb  - pre-bend
 r   - bend release (if no number after the r, then release immediately)
 /\  - slide into or out of (from/to "nowhere")
 s   - legato slide
 S   - shift slide
 - natural harmonic
[n]  - artificial harmonic
n(n) - tapped harmonic
 ~   - vibrato
 tr  - trill
 T   - tap
 TP  - trem. picking
 PM  - palm muting
\n/  - tremolo bar dip; n = amount to dip
 \n  - tremolo bar down
 n/  - tremolo bar up
/n\  - tremolo bar inverted dip
 =   - hold bend; also acts as connecting device for hammers/pulls
 <> - volume swell (louder/softer)
 x   - on rhythm slash represents muted slash
 o   - on rhythm slash represents single note slash

Misc Legend
-----------
 |  - bar
||  - double bar
||o - repeat start
o|| - repeat end
*|  - double bar (ending)
 :  - bar (freetime)
 $  - Segno
 &  - Coda
Tempo markers -  = BPM(8/16=s8/s16), where s8 = swing 8ths, s16 = swing 16ths

Tap to rate this tab
# A B C D E F G H I J K L M N O P Q R S T U V W X Y Z