Song name
# A B C D E F G H I J K L M N O P Q R S T U V W X Y Z

Yngwie Malmsteen - Teaser tab

#----------------------------------PLEASE NOTE---------------------------------#
#This file is the author's own work and represents their interpretation of the #
#song. You may only use this file for private study, scholarship, or research. #
#------------------------------------------------------------------------------#

TEASER
As recorded by Yngwie Malmsteen
(From the 1991 Album FIRE AND ICE)

Transcribed by guitargod175
	

Music by Yngwie Malmsteen

Gtr I (Eb Ab Db Gb Bb Eb) - 'Yngwie'
Gtr II (Eb Ab Db Gb Bb Eb) - 'clean rhythm'
Gtr III (Eb Ab Db Gb Bb Eb) - 'rhythm'

 Intro
  Moderately Fast Rock Q=136
             G/D   D                    G/D   D               D5/A    A
 4/4
  Gtr I
                                         ~~~     PM|    PM|       PM|
  W           Q.    E  +E   +E   Q    E  Q.    E S S  E S S   E E S S E +H
|----------|------------------------|-----------------------|---------5-(5)----|
|----------|-12----10-(10)-(10)\----|---12----10-----10-----|---------5-(5)----|
|----------|-12----11-(11)-(11)\----|---12----11-----11-----|-7-6-----6-(6)----|
|----------|-12----12-(12)-(12)\----|---12----12-----12-----|-7-7-----7-(7)----|
|----------|------------------------|------------0-0----0-0-|-0-0-0-0-0-(0)----|
|----------|------------------------|-----------------------|------------------|


                    G/D   D
                                   PM-----
  +E  E Q  Q.   E    Q.    E  +E   E E E
|-(5)-------------|----------------------|
|-(5)-------------|-12----10-(10)\-------|
|-(6)-------------|-12----11-(11)\-------|
|-(7)-xsxs=x\-----|-12----12-(12)\-------|
|-(0)-xsxs=x\-----|----------------0-0-0-|
|---------------0-|----------------------|


    G/D   D      D        D5/A    A
 -|  ~~~     PM|    PM|       PM|
                                           |--3--|
  E  Q.    E S S  E S S   E E S S E +Q.    S  S  S
|-----------------------|---------5-(5)------------|
|---12----10-----10-----|---------5-(5)------------|
|---12----11-----11-----|-7-6-----6-(6)---13h14h16-|
|---12----12-----12-----|-7-7-----7-(7)------------|
|-0----------0-0----0-0-|-0-0-0-0-0-(0)------------|
|-----------------------|--------------------------|


                         |------6------|            |-----6------|
   T  T  T  T  T  T  S   S  S  S  S  S S  S S  S S  S  S S  S  S S
|------------------------------------------------------------------|
|-15h17p15p14-----------14p12p10-----------------------------------|
|-------------16p14p13\----------13p11p9-11p9-13p9-----------------|
|--------------------------------------------------12p11p9---------|
|----------------------------------------------------------12p11p9-|
|------------------------------------------------------------------|


  G/D   D                  G/D   D      D
                 PM------|  ~~ PM   PM|    PM|
   Q.    E  +E   E E E   E  Q  E  E S S  E S S
|----------------------|-----------------------|
|-12----10-(10)\-------|---12----10-----10-----|
|-12----11-(11)\-------|---12----11-----11-----|
|-12----12-(12)\-------|---12----12-----12-----|
|----------------0-0-0-|-0-----0----0-0----0-0-|
|----------------------|-----------------------|


  D5/A    A
      PM| ~~~~~~
  E E S S E +Q    a  E  S  S
|-------------------------14-|
|----------------------------|
|-7-6-----6-(6)--------14----|
|-7-7-----7-(7)--14s16-------|
|-0-0-0-0-0-(0)--------------|
|----------------------------|


                                              G/D   D
                                          ~~                 PM------|
   S  S  E     E  S  S  S  S  S  S  S  S  E    Q.    E  +E   E S S S S
|-------------14-17p14-17-------------------|--------------------------|
|----------------------17-14----------------|-12----10-(10)\-----------|
|-16p14-16b18----------------17-16p14----14-|-12----11-(11)\-----------|
|-------------------------------------16----|-12----12-(12)\-----------|
|-------------------------------------------|----------------0-0-0-0-0-|
|-------------------------------------------|--------------------------|


      G/D   D               D5/A A
  PM|          PM|    PM|               T         T            T
                                                            |--3--|
  S S  Q.    E S S  E S S   E Q  E +E   S S  T T  T T  T T  T  T  T
|-------------------------|------------14p9h12p9-17p9h12p9h12-17p12-|
|-----12----10-----10-----|------5-(5)------------------------------|
|-----12----11-----11-----|-7-6--6-(6)------------------------------|
|-----12----12-----12-----|-7-7--7-(7)------------------------------|
|-0-0----------0-0----0-0-|-0-0--0-(0)------------------------------|
|-------------------------|-----------------------------------------|


                             \2.5____/
   T            T
   |-3--|
   T  T T  T T  T  T S  E E +Q      +E  +E
|-17p12p9h12p9-17p12p9\---------------------||
|-------------------------------------------||
|-------------------------------------------||
|-------------------------------------------||
|-------------------------------------------||
|-----------------------0-0-(0)-----(0)-(0)-||


 1st Verse
  F#5         A5/E                   B5         D5         E5
       ~~~~~~            PM------|
  E Q  E +Q   Q    +Q.   E E E E E   E Q  E +E  E Q    +E  E H.
|----------------|-----------------|-----------------|-------------|
|----------------|-----------------|--------------7--|-(7)---------|
|-------------2--|-(2)-------------|---4--2-(2)---7--|-(7)---------|
|-------------2--|-(2)-------------|-4-4--------7-7--|-(7)---------|
|-4-4------------|---------0-2-4-0-|-2----4-(4)-5-5--|-(5)-2-2-----|
|-2-2--4-(4)-----|-------4---------|-----------------|-----0-0-----|


  F#5            A5/E
       ~~~~~~          ~~~
  E Q  E +E  S S Q    +Q.   E S S S S S S S S
|-------------------|-------------------------|
|-------------------|-------------------------|
|----------------2--|-(2)---------------------|
|----------------2--|-(2)---------------------|
|-4-4---------------|---------0h2h4p0-2h4h5p4-|
|-2-2--4-(4)-2h4----|-------4-----------------|


  B5   A/C#    D        E5          E5
  E Q  E +E  E Q    +E  E Q  +E   E Q
|-----------------|--------------------|
|--------------7--|-(7)---9--(9)\------|
|---4--2-(2)---7--|-(7)-9-9--(9)\------|
|---4--2-(2)---7--|-(7)-9-9--(9)\-2-2--|
|-2----4-(4)-5-5--|-(5)-7-7--(7)\-2-2--|
|-----------------|-----------------0--|


                 A5                   A5
       ~~~~~~                 PM---------
  Q  E E +E  S S E E   +Q   E E E E E E
|--------------------|------------------|
|--------------------|------------------|
|----------------2---|------------------|
|-4--4-----------2-2-|-(2)------------2-|
|-4--4-----------0-0-|-(0)--0---0-2-4-0-|
|------4-(4)-2h4-----|--------4---------|


  B5  BmA/C#        D5      E5
 ---|         PM|                 ~~~~~~~~
  E E E E +E  S S E E   +E  E Q  +Q   +Q
|---------------------|---------------------|
|-----3-----------7---|---------------------|
|-----4-2-(2)-----7-7-|-(7)-----------------|
|-4-4---2-(2)-----7-7-|-(7)-2-2--(2)--------|
|-2-2---4-(4)-5-5---5-|-(5)-2-2--(2)--------|
|---------------------|-----0-0--(0)--(0)---|


                 A5
       ~~~~~~PM|             PM---------
  Q.   E +E  S S Q    +Q   E E E E E E
|-------------------|------------------|
|-------------------|------------------|
|-------------------|------------------|
|-4--------------2--|-(2)--------------|
|-4--------------0--|-(0)--0---0-2-4-0-|
|------4-(4)-2h4----|--------4---------|


  B5      A/C#D5        E5        E5
 -----------|
  E E E E E E E E   +E  E Q  +E   E E E
|-----------------|---------------------||
|---------------7-|-(7)---9-------------||
|-----4---2---7-7-|-(7)-9-9-------------||
|-4-4-4---2---7-7-|-(7)-9-9-------2-----||
|-2-2---4-4-5-5-5-|-(5)-7-7--(7)\-2-2---||
|-----------------|---------------0-0---||


 1st Chorus
  G/D   D                  G/D   D
                 PM------|  ~~~     PM|    PM|
   Q.    E  +E   E E E   E  Q.    E S S  E S S
|----------------------|-----------------------|
|-12----10-(10)\-------|---12----10-----10-----|
|-12----11-(11)\-------|---12----11-----11-----|
|-12----12-(12)\-------|---12----12-----12-----|
|----------------0-0-0-|-0----------0-0----0-0-|
|----------------------|-----------------------|


  D5/A    A
      PM|        PM----------------------------------------------|
  E E S S E +Q   E S S   E  S   S  S S  S   S   S   S  S S S S S S
|---------5-(5)--------|-------------------------------------------|
|---------5-(5)--------|-------------------------------------------|
|-7-6-----6-(6)--------|-------------------------------------------|
|-7-7-----7-(7)--------|-------------------------------------------|
|-0-0-0-0-0-(0)--0-0-0-|-0-<5>-<7>-0-0-<5>-<7>-<7>-<7>-0-0-0-0-0-0-|
|----------------------|-------------------------------------------|


  G/D                     G/D   D             D5/A
                  PM----|          PM|
   Q.    E  +Q    E E   E  Q.    E S S  E E   E Q  E +E    S  S  S  S  S  S
|---------------------|---------------------|------5-(5)-/16-16-15-14-------|
|-12------------------|---12----10-----10---|------5-(5)--------------17-16-|
|-12------------------|---12----11-----11---|-7-6---------------------------|
|-12----12-(12)\------|---12----12-----12---|-7-7---------------------------|
|-----------------0-0-|-0----------0-0------|-0-0---------------------------|
|---------------------|---------------------|-------------------------------|


                                          ~~
         |--3--|
   S  S  S  S  S  S  S  S  S  S  S  S  S  E  +E
|-------------------------------------------------||
|-15----------------------------------------------||
|----17p16p14----16p14-------14-------------------||
|-------------16-------16p14----16p14-------------||
|-------------------------------------16-14-(14)\-||
|-------------------------------------------------||


 2nd Verse
                 A5                    B5          D5       E/B
       ~~~~~~                PM----|        ~~~~~~
  Q.   E +E  S S Q    +H     E E E E   Q.   E +Q   Q    +E  E  Q   +H
|-------------------|----------------|----------------|-------------------|
|-------------------|----------------|----------------|-------------------|
|----------------2--|-(2)------------|-4-----------7--|-(7)-1-(1)--(1)----|
|----------------2--|-(2)------------|-4-----------7--|-(7)-2-(2)--(2)----|
|----------------0--|-(0)----0-2-4-0-|-2----4-(4)--5--|-(5)-2-(2)--(2)----|
|-2----4-(4)-2h4----|----------------|----------------|--------0---(0)----|


  F#5           A5
  E E E E E S S Q    +Q   E E S S S S S S S S
|------------------|--------------------------|
|------------------|--------------------------|
|------------------|--------------------------|
|-4-------------2--|-(2)----------------------|
|-4-4-4---------0--|-(0)--0---0h2h4p0-2h4h5p4-|
|-2-2-2-4-4-2h4----|--------4-----------------|


  B5              D        E
        ~~~~~~PM|
  E E E E +E  S S Q    +E  E Q  +E  E Q
|--------------------|---------------------||
|-----------------7--|-(7)-9-9--(9)--------||
|---4-------------7--|-(7)-9-9--(9)--------||
|---4-------------7--|-(7)-9-9--(9)-2------||
|-2---2-4-(4)-5-5-5--|-(5)-7-7--(7)-2------||
|--------------------|----------------0----||


 2nd Chorus
  G/D   D                  G/D   D
                 PM------|  ~~~     PM|    PM|
   Q.    E  +E   E E E   E  Q.    E S S  E S S
|----------------------|-----------------------|
|-12----10-(10)\-------|---12----10-----10-----|
|-12----11-(11)\-------|---12----11-----11-----|
|-12----12-(12)\-------|---12----12-----12-----|
|----------------0-0-0-|-0----------0-0----0-0-|
|----------------------|-----------------------|


    A
                      PM--|
  E Q  E +Q   E S S   E E E  S     +S      +Q    E S S
|-------------------|-------17-------------------------|
|-------------------|-------17-------------------------|
|-7-6--6-(6)--------|-------16b18r(16)b18-(16)s=14-----|
|-7-7--7-(7)--------|----------------------------------|
|-0-0--0-(0)--0-0-0-|-0-0-0------------------------0-0-|
|-------------------|----------------------------------|


  G5                      G/D   D      D          A
                  PM----|  ~~~     PM|    PM|       PM|          T
                                                                 |--3--|
   Q.    E  +Q    E E   E  Q.    E S S  E S S   E E S S E +Q.    S  S  S
|---------------------|-----------------------|---------5-(5)---17p10h12-|
|---------------------|---12----10-----10-----|---------5-(5)------------|
|---------------------|---12----11-----11-----|-7-6-----6-(6)------------|
|-12----12-(12)\------|---12----12-----12-----|-7-7-----7-(7)------------|
|-10--------------0-0-|-0----------0-0----0-0-|-0-0-0-0-0-(0)------------|
|---------------------|-----------------------|--------------------------|


   T           T        T        T        T     T     T     T    T       T         T
         |--3--|  |------6-------|  |-----5-----|             |---4---|  |--4---|
   T  T  T  T  T  T  T  T  T  T  T  T  T  T  T  T  T  T  T  T T  T T  T  T T  T T  S S E
|-17p10h12p10-17p10h12-17p10h12-17p10h12-17p10-17p10-17p10-17p9-17p9h12-17p9h12p9-17p9-0-|
|--------------------------------------------------------------------------------------0-|
|----------------------------------------------------------------------------------------|
|----------------------------------------------------------------------------------------|
|----------------------------------------------------------------------------------------|
|----------------------------------------------------------------------------------------|


  G5/D  D
   Q.    E  +Q      S      +E   +S
|---------------------------------------|
|---------------------------------------|
|-12----11-(11)\------------------------|
|-12----12-(12)\------------------------|
|---------------------------------------|
|-----------------/17b19==(17)-(17)r\---|


    G/D   D    D          A
             PM   PM|
  E  E Q   E E  E S S   E Q  E E   S  S  S  S  S  S
|---------------------|----------/17-16-15-14-------|
|---12----10---10-----|-----------------------17-16-|
|---12-0--11---11-----|-7-6--6----------------------|
|---12-0--12---12-----|-7-7--7----------------------|
|------------0----0-0-|-0-0--0----------------------|
|---------------------|-----------------------------|


                                               G/D
                                          ~~                   PM|
         |--3--|
   S  S  S  S  S  S  S  S  S  S  S  S  S  Q     Q.    E  +Q    E E
|--------------------------------------------|---------------------|
|-14-----------------------------------------|-12------------------|
|----17p16p14----16p14-------14--------------|-12------------------|
|-------------16-------16p14----16p14--------|-12----12-(12)\------|
|-------------------------------------16p14--|-----------------0-0-|
|--------------------------------------------|---------------------|


    G/D   D/F# D        A
  PM ~~~     PM   PM
  E  Q.    E E  E E   E Q  E  Q    Q      +H       H
|---------10--------|------5-----------|-----------------||
|---12----10---10---|------5-----------|-----------------||
|---12----11---11---|-7-6--6-----------|-----------------||
|---12---------12---|-7-7--7------<7>--|-(<7>)-----------||
|-0----------0----0-|-0-0--0-(0)--(0)--|--(0)-----(0)----||
|-------------------|--------<5>-------|----------<5>----||


 Bridge
  A                      G/B
  Gtr II
  E  E E  E  E  E E  E   E E E  E E E E E
|-----------12---------|-------10---------|
|--------10----10------|-8--------8-----8-|
|------9----------9----|---7--------7-----|
|---11--------------11-|-----9--------9---|
|-0--------------------|------------------|
|----------------------|------------------|


  D/E                Dmadd9/A
  E E E  E E E E E   E E E E E E E E
|-------10---------|---------0--------|
|-7--------7-----7-|-6-----6---6------|
|---7--------7-----|-----7-------7----|
|-----7--------7---|---7-----------7--|
|------------------|------------------|
|------------------|------------------|


  A                 Em7/A             D/A
  E E E E E E E E   E E E E E E E E    E E E E E E E E
|---------0-------|---------0-------|----------0-------|
|-------5---5-----|-------3---3-----|-!3-----3---3-----|
|-----6-------6---|-----4-------4---|-!2---2-------2---|
|---7-----------7-|---5-----------5-|-!4-4-----------4-|
|-0---------------|-0---------------|-!0---------------|
|-----------------|-----------------|------------------|


  F/C                                                             F
  Gtr I
   |-------6-------|  |------6-------|  |--3--|              |3-|        |--3--|
   S   S  S  S  S  S  S  S  S  S  S  S  S  S  S  T  T  T  T  E  S  T  T  T  T  T
|-19p=17-15-19-17-15s13-17-15p13-12-15p13-12----13p12-------------15h17p15-------|
|--------------------------------------------15-------15-13s15-17----------18p17p|
|--------------------------------------------------------------------------------|
|--------------------------------------------------------------------------------|
|--------------------------------------------------------------------------------|
|--------------------------------------------------------------------------------|
|
| Gtr III
|  H..                                                             E
|--------------------------------------------------------------------------------|
|--1---------------------------------------------------------------1-------------|
|--2---------------------------------------------------------------2-------------|
|--3---------------------------------------------------------------3-------------|
|--3-----------------------------------------------------------------------------|
|--------------------------------------------------------------------------------|


  G
                                       ~~
   |------6-------|  |------6-------|
   S  S  S  S  S  S  S  S  S  S  S  S  Q    S  S E
|----------------------------------------------------||
|-15-17-15p13-12-15-13p12----13p12--------/20-15-----||
|-------------------------14-------14-12-------------||
|----------------------------------------------------||
|----------------------------------------------------||
|----------------------------------------------------||
|
|  W
|----------------------------------------------------||
|--0-------------------------------------------------||
|--0-------------------------------------------------||
|--0-------------------------------------------------||
|----------------------------------------------------||
|----------------------------------------------------||


 Guitar Solo
              F#5                        A5
                                                ~~~~~~~~
                     |--3--|              |--3--|
   S  S  S  S  S  S  S  S  S  S  S  S  S  S  S  S  +E
|----------14----------------17p14----------17s21-(21)-|
|-------14----14----------14-------14----14------------|
|----14----------14----14-------------14---------------|
|-16----------------16---------------------------------|
|------------------------------------------------------|
|------------------------------------------------------|
|
|  PM---------------------------------------------------
|  E     E     E     E        E     E     E         E
|------------------------------------------------------|
|------------------------------------------------------|
|------------------------------------------------------|
|-----------------------------------------2------------|
|--------------4--------------------------0---------0--|
|--2-----2-----2-----4--------4-----4------------------|


 ~~~~~~
   +Q.      S  S  S  S  S  S  S  S  T  S  T
|-(21)-----17-16-19-17p16----17p16----------|
|-------------------------19-------19s17-14-|
|-------------------------------------------|
|-------------------------------------------|
|-------------------------------------------|
|-------------------------------------------|
|
|----------------------------------|
|   E  E E  E     E     E     E     E
|-------------------------------------------|
|-------------------------------------------|
|-------------------------------------------|
|---2---------------------------------------|
|---0----0--------0-----2-----4-----0-------|
|------4----4-------------------------------|


   |--3--|        |----5-----|  |---3----|        |------6-------|
   S  S  S  S  S  S  S  S    E  T  T  S  S  S  S  S  S  S  S  S  S
|-14---------------------------------------------------------------|
|----17p14---------------------------------------------------------|
|----------17-16p14----16---14-13h14p13----13-------------13h14h15-|
|-------------------16------------------16----16-14h15h16----------|
|------------------------------------------------------------------|
|------------------------------------------------------------------|
|
|  PM---------------------------------------------------------------
|  E        E     E       E     E           E     E        E
|------------------------------------------------------------------|
|------------------------------------------------------------------|
|------------------------------------------------------------------|
|------------------------------------------------------------------|
|--2--------2-----2-------4-----4-----------4-----5--------5-------|
|------------------------------------------------------------------|


                               E5      F#5                                         A5
             ~~~~~~~~~~
                                                                         |---3---|  |------6-------|
   S  E.    +Q    +E.  S  S  S  S  S    S  S  S  S  S  T  T  S  S  S  S  S  S    S  S  S  S  S  S  S
|------------------------------------|------------------------------------------14-17p14----------14h===|
|-14h17----(17)--(17)p15p14h15----14-|-------------------14-19p14----------14------------14----14-------|
|------------------------------16----|-14-16-13-14----14----------14----14------------------14----------|
|------------------------------------|-------------16----------------16---------------------------------|
|------------------------------------|------------------------------------------------------------------|
|------------------------------------|------------------------------------------------------------------|
|
|--------|                              PM------------------------------------|
|  E     E   Q    +Q.           E       E     E     E        E     E     S    S     E        E
|------------------------------------|------------------------------------------------------------------|
|------------------------------------|------------------------------------------------------------------|
|------------------------------------|-------------------------------------------------------2----------|
|------------------------------------|----------------------------------------------2--------2----------|
|--5----------------------------2----|--4-------------------------------------------0--------0----------|
|--------0---0----(0)-----------0----|--2-----2-----2--------4-----4-----2h===4-------------------------|


        A5                B5                   A/C#                 D5
   ~~~
                                 |--3--|              |--3--|        |--3--|  |--3--|
   H         E  E  E  E    S  S  S  S  S  S  S  S  S  S  S  S  S  S  S  S  S  S  S  S
|-17--------14-16-17-14-|----17----------16----------14-------------------------------|
|-----------------------|-15----15-14s12----14-12-------12-------------14-15-17p15p14-|
|-----------------------|-------------------------14-------14-13h14h16----------------|
|-----------------------|-------------------------------------------------------------|
|-----------------------|-------------------------------------------------------------|
|-----------------------|-------------------------------------------------------------|
|
|     PM        PM---|                                         PM
| +E  E E E  E  E  E  E    E     Q              E     E        E     Q
|-----------------------|-------------------------------------------------------------|
|-----------------------|-------------------------------------------------------------|
|-(2)-------------------|-----------------------2-------------------------------------|
|-(2)---2----2----------|--4--------------------2--------------------7----------------|
|-(0)---0----0--2--4--0-|--2--------------------4--------------4-----5----------------|
|-----4---4-------------|-------------------------------------------------------------|


            E5                E5
                ~~~~~~~~~~~~~~
   |--3---|
   S   S  S  S  S  +Q    +E     E  E.    S
|-------------------------------------------|
|---------------------------------------14--|
|-16--14p13---------------------------------|
|-----------16-14-(14)--(14)\---------------|
|-------------------------------------------|
|-----------------------------/19\----------|
|
| +E         E      Q    +E     E  E  E
|-------------------------------------------|
|-------------------------------------------|
|-------------------------------------------|
|-(7)--------9------9----(9)\---2-----------|
|-(5)--------7------7----(7)\---2--2--0-----|
|-------------------------------0--0--------|


  F#5                                               A5
                                                                                                       |--3---|  |--3--|  |--3--|  |--3--|
   E     +E      +E   S      +S   +S      +S   S  S  S  S  S  S        +S   +E.    +E   +S       +S   +S   S  S  S  S  S  S  S  S  S  S  S
|-16b17r(16)b17-(16)-16b17==(16)r(16)b17-(16)-16-14----14-16-16b17==|=(16)-(16)---(16)r(16)b17==(16)r(16)-14-16-17-14-16-17-19-16-17-19-21-|
|---------------------------------------------------14--------------|----------------------------------------------------------------------|
|-------------------------------------------------------------------|----------------------------------------------------------------------|
|-------------------------------------------------------------------|----------------------------------------------------------------------|
|-------------------------------------------------------------------|----------------------------------------------------------------------|
|-------------------------------------------------------------------|----------------------------------------------------------------------|
|
|  PM----------------------------|                                              PM----------------------------------------------------------
|  E      E       E   E            E           S  S  Q                 +E       E   E    E             E         E        E        E
|-------------------------------------------------------------------|----------------------------------------------------------------------|
|-------------------------------------------------------------------|----------------------------------------------------------------------|
|-------------------------------------------------------------------|----------------------------------------------------------------------|
|----------------------------------------------------2--------------|--(2)-----------------------------------------------------------------|
|--4-------------------------------------------------0--------------|--(0)----------0----2-------------4---------5--------4--------0-------|
|--2------2-------2---4------------4-----------2h=4-----------------|-----------4----------------------------------------------------------|


            A/C#               D5                     E5
                                                   ~~~~~~~~~~~~
                                |---3----|
   Q.        +E       +E   +E   E  S  S  E    E   +Q.     +E   E  E   E
|-21b22-----(21)b24==(21)r(21)-19-21-19-17-|-19--(19)----(19)p17-19--21--|
|------------------------------------------|-----------------------------|
|------------------------------------------|-----------------------------|
|------------------------------------------|-----------------------------|
|------------------------------------------|-----------------------------|
|------------------------------------------|-----------------------------|
|
|-|                    PM-|
|  E    E E   E        E    E   Q            +E    E  H          +Q
|------------------------------------------|-----------------------------|
|------------------------------------------|-----------------------------|
|-------4-----2-----------------7----------|-(7)-------------------------|
|-------4-----2-----------------7----------|-(7)------9------------------|
|--2----------4--------4----5---5----------|-(5)------7------------------|
|------------------------------------------|-------0--0----------(0)-----|


  F#5                                            A5
                                    |3|          |-3-| |3|
   T  T  T  T  T  S  T  T  T  T  T  E S  S S S S S S S S E
|-17h21-17s16h17p16s13-14h15p14p13-14s9h10p9p8-9s5-7-5-4-5\-|
|-----------------------------------------------------------|
|-----------------------------------------------------------|
|-----------------------------------------------------------|
|-----------------------------------------------------------|
|-----------------------------------------------------------|
|
|              PM-----------------------|
|  E           E        E           E    E   S S Q
|-----------------------------------------------------------|
|-----------------------------------------------------------|
|-----------------------------------------------------------|
|--4---------------------------------------------2----------|
|--4---------------------------------------------0----------|
|--2-----------2--------2-----------4----4---2h4------------|


   E  E S E.     +E  +E    +S  S S S
|--2---------------------------2-----|
|-----2-5------------------------2---|
|---------5b6====(5)r(5)b6-(5)-----5-|
|------------------------------------|
|------------------------------------|
|------------------------------------|
|
|     PM-------------------------|
| +E  E E      E  E   E     E    E
|------------------------------------|
|------------------------------------|
|------------------------------------|
|-(2)--------------------------------|
|-(0)---0------2--4---0-----2----4---|
|-----4------------------------------|


              A/C#          D5
                      |-3-|     |3|
  S S S S S S S S S S S S S S S E S
|-----------------------------------|
|-----------5p2---2-----------------|
|-4-4p2h4-4-----5---5p4p2---2h4-2s4-|
|-------------------------4---------|
|-----------------------------------|
|-----------------------------------|
|
| PM          PM      PM
| E   Q       E   E   E     Q
|-----------------------------------|
|-----------------------------------|
|-------------2-------------7-------|
|-------------2-------------7-------|
|-2-----------4-------5-----5-------|
|-----------------------------------|


                 E
              ~~~~~~~~~~~~          PM---------------------|
   S   S     +E  +Q  +Q      Q      E    E   E  E  E  E  E  E
|-------------------------------|-----------------------------|
|-----[7]b9==(7)-(7)-(7)r-------|-----------12-10-------------|
|-------------------------------|-------12--------11-------12-|
|---------------------------17--|-<12>-<12>----------12-12----|
|---------------------------17--|-<12>-<12>-------------------|
|-------------------------------|-----------------------------|
|
| +E          E   Q   E   E  Q      W
|-------------------------------|-----------------------------|
|-----------------9-------------|-----------------------------|
|-(7)-------------9-------------|-----------------------------|
|-(7)---------9---9-------------|-----------------------------|
|-(5)---------7---7s==2---2-----|-----------------------------|
|-------------------------0--0--|-----------------------------|


   PM------------------|           PM     ~~~~PM
   E  E  E  E  E  E  E  E    E  E  E  E  +Q   E  E
|-------------------------|------------------------|
|-12-10----------10-------|-10------------------14-|
|-------11----11----11----|----11-----9--(9)----14-|
|----------12----------12-|----------11-(11)----14-|
|-------------------------|-------12----------0----|
|-------------------------|------------------------|


              PM|   PM  PM|   PM
   a   E   E  S S E S S S S E E
|--------------------------------|
|-14h=15--14\---------------5----|
|-14-(14)-14\-----7---6-----6----|
|-14h=16--14\-7-7-7---7-----7-0--|
|-------------------0---0-0------|
|--------------------------------|


                                                      D/A
                                                               \1.5
               ~~~~
   E  E E  E   Q    E  E    E  E  E  E  E   E  E  E   E E E E +H
|------------------------|--------------------------|------------------|
|-------0-10-(10)--------|-12-10-------10-----------|-7-5--------------|
|----12-------11------12-|-------11--------11-11\---|-7-6--------------|
|-12---------------12----|----------12--------12\-7-|-7-7--------------|
|------------------------|--------------------------|-------0-(0)------|
|------------------------|--------------------------|-----0------------|
|
| Gtr III
|  E  E E  E  +H            E  E  E  E +H             W
|------------------------|--------------------------|------------------|
|------------------------|--------------------------|------------------|
|------------------------|--------------------------|------------------|
|------------------------|--------------------------|------------------|
|-----0----0--(0)--------|-----0-----0-(0)----------|------------------|
|-------0----------------|--------0-----------------|------------------|


                    Out-Chorus
                     G/D
                                     PM---
  +Q   Q   Q   Q      Q.    E  +Q    E E
|-----------------||---------------------|
|-----------------||-12------------------|
|-----------------||-12------------------|
|------x\---------||-12----12-(12)\------|
|-(0)--x\---------||-----------------0-0-|
|----------5\-----||---------------------|


    G/D   D               A
 -|  ~~~     PM   PM|         ~~~~~~
  E  Q.    E E  E S S   E E E E +Q     S  S  S  S
|---------------------|--------------/17-16-15-14-|
|---12----10---10-----|---------------------------|
|---12----11---11-----|-7-6---6-(6)---------------|
|---12----12---12-----|-7-7---7-(7)---------------|
|-0----------0----0-0-|-0---0---------------------|
|---------------------|---------------------------|


   S  S  S  S  S  S  S  S  S  S  S  S  S  S  S  S
|-------------------------------------------------|
|-17p16p15p14-------------------------------------|
|-------------17p16p14----16p14-------------------|
|----------------------16-------16p14-------------|
|-------------------------------------16p14s12----|
|----------------------------------------------14-|


                              G5/D  D
                  PM--------|  ~~~     PM|    PM--|
   Q.    E  +Q    E S S   S S  Q.    E S S  S S S S
|-----------------------|----------------------------|
|-----------------------|-----------10-----10--------|
|-----------------------|-----12----11-----11--------|
|--9----12-(12)\--------|-----12----12-----12--------|
|-10--------------0-0-0-|-0-0----------0-0--0-0-0-0--|
|-----------------------|----------------------------|


                       T    T       T
  E E E E +E   E T  T  T T  T  T T  T
|----------------9h12-17p9-17p12p9-17p|
|-7-----------------------------------|
|-7-6---6-(6)-------------------------|
|-7-7---7-(7)s11----------------------|
|-----0-------------------------------|
|-------------------------------------|


                                                      \0.5/
                                    ~~~~                                  ~~~
  |-----6------|
  S  S S  S S  S  E      +E   +E   +Q    +E       E  +Q       E  +E   E   E  E
|-9h12p9h12p9h12s21b24==(21)-(21)-(21)--(21)r\-|-------------------------------|
|----------------------------------------------|-------------------------------|
|----------------------------------------------|----------------------------14-|
|----------------------------------------------|-12-(12)-----12-(12)\-0-/16----|
|----------------------------------------------|-------------------------------|
|----------------------------------------------|-------------------------------|


        G/D   D                  A
    ~~~~~
   +E    Q.    E S S  Q    E E E E +Q   E  S  S
|------------------------|----------------------|
|-------12----10-----10--|-------5-(5)----------|
|-(14)\-12----11-----11--|-7-6---6-(6)----------|
|-------12----12-----12--|-7-7---7-(7)----14----|
|----------------0-0--0--|-0---0--------0----16-|
|------------------------|----------------------|


                                   G/D   D
                            ~~~                    PM|
   S  S  Q.       +S   +S   Q.      Q.    E  +Q    E E
|--------------------------------|----------------------|
|--------------------------------|-12----10-------------|
|-------16b18====(16)r(16)p14----|-12----11-------------|
|-16p14--------------------------|-12----12-(12)\-------|
|--------------------------------|-----------------0-0--|
|--------------------------------|----------------------|


                    \2.5_____/
                                               ~~~~~
  H      Q   Q      Q       +Q    +S   E.     +Q
|-----------------|---------------------------------|
|-----------------|-------------------20b22==(20)r--|
|-----------------|---------------------------------|
|------------x\---|-0-------(0)---(0)---------------|
|------------x\---|---------------------------------|
|-----------------|---------------------------------|
|
| Gtr III
|          PM                      TP
| E Q.   E E E  E   E     Q     E  H
|-----------------|---------------------------------|
|-----------------|---------------------------------|
|-----------------|---------------------------------|
|-----------------|---------------------------------|
|-0-0----0-0-0--0-|-0-----0-----0--0----------------|
|-----------------|---------------------------------|


   |--3--|        |--------6--------|  |------6-------|  |------6-------|
   S  S  S  E     S  S  S  S     S  S  S  S  S  S  S  S  S  S  S  S  S  S
|-17-------------17-------------17-------17-------------------------------|
|----20p17-20b22----20p17-20b22----20p17----20p17h20-17-17h20p17-20-20p17-|
|-------------------------------------------------------------------------|
|-------------------------------------------------------------------------|
|-------------------------------------------------------------------------|
|-------------------------------------------------------------------------|
|
|  TP
|  W
|-------------------------------------------------------------------------|
|-------------------------------------------------------------------------|
|-------------------------------------------------------------------------|
|-------------------------------------------------------------------------|
|--0----------------------------------------------------------------------|
|-------------------------------------------------------------------------|


                                                 ~~
   |------6-------|      |-3-|  |--3--|
   S  S  S  S  S  S     +E   S  S  S  S  Q.      E
|---------------------------------------20b24------|
|-20p17-20-20p17-20b22-(20)-17h20-17-17---------20-|
|--------------------------------------------------|
|--------------------------------------------------|
|--------------------------------------------------|
|--------------------------------------------------|
|
|  TP
|  W
|--------------------------------------------------|
|--------------------------------------------------|
|--------------------------------------------------|
|--------------------------------------------------|
|--0-----------------------------------------------|
|--------------------------------------------------|


   S  S  E  S  S  S  S  S  S  S  S  S  S  S  S
|-20p17----20p17-------17----------------------|
|-------19-------19p17----19p17----------17h19-|
|-------------------------------19-17h19-------|
|----------------------------------------------|
|----------------------------------------------|
|----------------------------------------------|
|
|  TP
|  W
|----------------------------------------------|
|----------------------------------------------|
|----------------------------------------------|
|----------------------------------------------|
|--0-------------------------------------------|
|----------------------------------------------|


                  ~~~~~~~~
   S  S  S  S  S  E.  +E   E  E  a  E    E  E   Q     +Q     Q
|-17----17-19p17----------------------|---------------------------*|
|----17-------------------------------|---------------------------*|
|-------------------------17-18-18s16-|---------------------------*|
|----------------19--(19)-------------|-14------------------------*|
|-------------------------------------|-------<16>--(<16>)--------*|
|-------------------------------------|---------------------------*|
|
|                      \5
|  TP
|  H                   H                +Q      Q     +Q    +E  E
|-------------------------------------|---------------------------*|
|-------------------------------------|---------------------------*|
|-------------------------------------|---------------------------*|
|-------------------------------------|---------------------------*|
|--0-------------------0--------------|-(0)-----0-----(0)---(0)---*|
|-------------------------------------|---------------------------*|



Duration Legend
---------------
W - whole; H - half; Q - quarter; E - 8th; S - 16th; T - 32nd; X - 64th; a - acciaccatura
+ - note tied to previous; . - note dotted; .. - note double dotted
Uncapitalized letters represent notes that are staccato (1/2 duration)
Irregular groupings are notated above the duration line
Duration letters will always appear directly above the note/fret number it represents the
duration for.  Duration letters with no fret number below them represent rests.  Multi-
bar rests are notated in the form Wxn, where n is the number of bars to rest for.  Low
melody durations appear below the staff

Tablature Legend
----------------
 h   - hammer-on
 p   - pull-off
 b   - bend
 pb  - pre-bend
 r   - bend release (if no number after the r, then release immediately)
 /\  - slide into or out of (from/to "nowhere")
 s   - legato slide
 S   - shift slide
 - natural harmonic
[n]  - artificial harmonic
n(n) - tapped harmonic
 ~   - vibrato
 tr  - trill
 T   - tap
 TP  - trem. picking
 PM  - palm muting
\n/  - tremolo bar dip; n = amount to dip
 \n  - tremolo bar down
 n/  - tremolo bar up
/n\  - tremolo bar inverted dip
 =   - hold bend; also acts as connecting device for hammers/pulls
 <> - volume swell (louder/softer)
 x   - on rhythm slash represents muted slash
 o   - on rhythm slash represents single note slash

Misc Legend
-----------
 |  - bar
||  - double bar
||o - repeat start
o|| - repeat end
*|  - double bar (ending)
 :  - bar (freetime)
 $  - Segno
 &  - Coda
Tempo markers -  = BPM(8/16=s8/s16), where s8 = swing 8ths, s16 = swing 16ths

Tap to rate this tab
 
# A B C D E F G H I J K L M N O P Q R S T U V W X Y Z