Song name
# A B C D E F G H I J K L M N O P Q R S T U V W X Y Z

Yngwie Malmsteen - Evil Eye tab

                            Yngwie Malmsteen
                                Evil Eye


standard tuning
EADGBe

tr=trill
h=hammer on
p=pull off

-----------------12--------------------------------------------|
--16-14-12----14----16-14-12-11--16-14-12----------------------|
-----------13-----------------------------15-13-12tr13-13-13---|
---------------------------------------------------------------|
---------------------------------------------------------------|
---------------------------------------------------------------|

-----------------12--------------------------------------------------|
--16-14-12----14----16-14-12-11--16-14-12------13h14h16h17-16p14h16--|
-----------13-----------------------------15-13----------------------|
---------------------------------------------------------------------|
---------------------------------------------------------------------|
---------------------------------------------------------------------|

---------------------------------------|
---------------------------------------|after this part yngwie goes crazy
--------6-8-9--------4-6-8--------6-3--|
--9-8-9--------8-6-8--------6-5-6------|x2
---------------------------------------|
---------------------------------------|

im not so sure about this part
-----------------------------------------|
-----------------------------------------|
-----------------------------------------|
-----6p0-5p0-----------------6p0-5p0-2---|x4
-------------7-6---------------------2---|
--0--------------5h6p5p3p0-0---------0---|

peace
Tap to rate this tab
# A B C D E F G H I J K L M N O P Q R S T U V W X Y Z