Guitaretab - guitar tabs
Song name
# A B C D E F G H I J K L M N O P Q R S T U V W X Y Z

Yngwie Malmsteen - Brothers tab

BROTHERS BY: YNGWIE MALMSTEEN
ALBUM: SEVENTH SIGN
TABS BY: AZARIAH DESBLEDS
E-MAIL:vengeance_2112@hotmail.com

I've been at this for a while and I have finally come up with this.
I have been over this again and again and it sounds 100%
If there are any mistakes let me know via e-mail.
I know there are 2 guitars playing but I've tabbed only the important bits.
This is one you'll wanna play forever

                      po
|-----------------12-17-12----------12-17-BEND-15-|----------------------------------|
|--------------13----------13----13---------------|---17-15--------------------------|
|-----------14----------------14------------------|---------17-16-14-----------------|
|--------14---------------------------------------|------------------15-14-12-10-9---|
|--12-15------------------------------------------|----------------------------------|
|-------------------------------------------------|----------------------------------|

-------------------------------------------------------|--------------------------|
-------------------------10----12----------------------|--------------------------|
--------------------9----------------------------------|--------14-16-17-BEND-16--|
----7----9----10---------------------17----14----12~~--|--10-14-------------------|
-------------------------------------------------------|--------------------------|
-------------------------------------------------------|--------------------------|
                              po ho po
|-----------------------------|--|--|--------------------------------|
|-----------------------------|--|--|--------------------------------|
|--14-12----------------------|--|--|--------------------------------|
|--------15-14--------------17-15-17-15-14---------------17-BEND-----|
|--------------17-15-15-14-----------------17-15---14----------------|
|--------------------------------------------------------------------|

|--------------------------------------------------------------------------------|
|--------------------------------------------------------------------------------|
|--------------------------------------------------------------------------------|
|--14~~-----15~~--14~~-------------14~~----------------------12~~----------14----|
|-----------------------17~~-------------17~~----15~~--------------15---14----14-|
|--------------------------------------------------------13----------------------|
   po             po               po
    ^             ^                 ^
|--9-7--------7-13-10----------10-16-13----------13-/22--|
|------9----9---------12----12----------15----15---------|
|--------10--------------13----------------16------------|
|--------------------------------------------------------|
|--------------------------------------------------------|
|--------------------------------------------------------|
                                                          po  ho
|----------------------------------------------------------|--|-----------|
|----------------------------------------------------------|--|-----------|
|--21-----22---21---19-----------19--21—19--21-BEND------19-17-19---------|
|------------------------21—22------------------------------------19~~----|
|-------------------------------------------------------------------------|
|-------------------------------------------------------------------------|
                   po  ho
|-------------------|--|-----------------------------------|
|-------------------|--|-------------17-18-17-15-----------|
|--17-FULL-BEND—16-17-16-14----14-16-------------17-16-14--|
|----------------------------------------------------------|
|----------------------------------------------------------|
|----------------------------------------------------------|

|-------------------------------|---------------------------------------------|
|-------------------------------|---------------------------------------------|
|--16-14-13---------------------|---14----------------12---12-----------------|
|-----------15-14-12-10-9-------|--------14---15----------------12----14-BEND-|
|-------------------------12-11-|---------------------------------------------|
|-------------------------------|---------------------------------------------|

|-----------------------------------------------------------|
|-----------------------------------------------------------|
|-----------------------------------------------------------|
|--14---------12-----14---14------------12------12----14~~--|
|------15---------------------14----15------14--------------|
|-----------------------------------------------------------|

|--------------------------------------------------------------------------|
|--------------------------------------------------------------------------|
|--14-------------12---12--------------------------------------------------|
|------14---15-------------12----14-BEND---14--------12-----14---14--------|
|-----------------------------------------------15-------------------14----|
|--------------------------------------------------------------------------|

|--------------------------17-------------------------------------------|
|-----------------------------------------------------------------------|
|---------------------------------------15---14---12---10---9---7-------|
|------12------12----------------------------------------------------9--|
|--15------14--------15-----------16------------------------------------|
|-----------------------------------------------------------------------|

|------------------------------------|-----------------------------------------|
|--9----8----6----5---------------3--|-------------------17-18-17-15-17-BEND---|
|---------------------7----5---------|-----------------------------------------|
|------------------------------------|-------------14-15-----------------------|
|------------------------------------|----14-15-17-----------------------------|
|------------------------------------|-----------------------------------------|

|-------------------13----12------17----------------------------------------|
|---------------------------------------------------------------------------|
|--14--13--14-------------------------------15---14---12---10---9---7-------|
|--------------14--------------------------------------------------------9--|
|-------------------------------------16------------------------------------|
|---------------------------------------------------------------------------|

|--------------------------------------7-BEND-|
|--9----8----6----5---------------6-----------|
|---------------------7----5------------------|
|---------------------------------------------|
|---------------------------------------------|
|---------------------------------------------|

|--------12-17-17------------13-16-19-16-------20-BEND---19--17--20-BEND-20--|
|-----13------------------15-------------18-17-------------------------------|
|--14------------------16----------------------------------------------------|
|----------------------------------------------------------------------------|
|----------------------------------------------------------------------------|
|----------------------------------------------------------------------------|

SOLO START
    po                 po                   po
|--8--5-----------5--12--8-------------8--17--12--------------12--20-BEND----------|
|--------5-----5------------10-----10-------------13------13---------------17--17--|
|-----------5-------------------9---------------------14---------------------------|
|----------------------------------------------------------------------------------|
|----------------------------------------------------------------------------------|
|----------------------------------------------------------------------------------|
[ Tab from: http://www.guitaretab.com/y/yngwie-malmsteen/138238.html ]
|--20--13-----------19--12-------17----------------------15----13-12----------|
|---------17---------------15-------15----------15-17-18-------------13-13-13-|
|------------19---------------17-------17-16-17-------------------------------|
|-----------------------------------------------------------------------------|
|-----------------------------------------------------------------------------|
|-----------------------------------------------------------------------------|

|-------------------------|------------------------|
|-------------------------|------------------------|
|------12-----------------|--------------------14--|
|--12------14-15----14~~--|-----------12-14-15-----|
|-------------------------|--12-14-15--------------|
|-------------------------|------------------------|

|---------------------------------------------------------------------------|
|--------------------------------------15-17-18-17-15-13--------------------|
|-----------------------------14-16-17-------------------16-14--------------|
|--------------------14-15-17----------------------------------17-15-14-----|
|-----------14-15-17----------------------------------------------------17--|
|--13-15-17-----------------------------------------------------------------|

|---------------------------20-BEND---20-BEND-----20-BEND-----------19-BEND-------|
|-----------------------------------------------------------22--22----------------|
|---------------16-BEND-------------------------------------------------------21--|
|----14-BEND----------------------------------------------------------------------|
|---------------------------------------------------------------------------------|
|---------------------------------------------------------------------------------|

|--22-BEND-22-----19-17-15-19-17-15----17-15-------15----------------------------------|
|--------------22-------------------18-------18-17----18-17-15-18-17-15----17-15-------|
|-----------------------------------------------------------------------17-------17-16-|
|--------------------------------------------------------------------------------------|
|--------------------------------------------------------------------------------------|
|--------------------------------------------------------------------------------------|

----------------------------------------------------|
--15------------------------------------------------|
-----17-16-15-17-15----15---------------------------|
--------------------15----15------------------------|
-----------------------------16-13---8-7------------|
-----------------------------------8-----10-8-7~~---|

|-------------------------------------------|
|-------------------------------------------|
|--------------------------------------7--9-|
|----------------------------7--9--10-------|
|--7~~-------------7--8--10-----------------|
|----------8---10---------------------------|
  po
-19-16-------------------------------------------------|
-------18-17-15----------------------------------------|
----------------17-16-14-13----------------------------|    SOLO END
----------------------------15-14-12-------------------|
-------------------------------------15-14-12-10-------|
-------------------------------------------------13----|

|----------------------------------------------------------------------------|
|----------------------------------------------------------------------------|
|--------15---14---12----------------------------13---12---10----------------|
|--11-------------------15---14---------------------------------14---12---10-|
|---------------------------------17----14~~---------------------------------|
|----------------------------------------------------------------------------|

|--10/12-FULL-BEND--17-------------17--------15-13----13-12---------------|
|--------------------------------------17-18-------15-------15-13-12------|
|------------------------16---14-------------------------------------14---|
|-------------------------------------------------------------------------|
|-------------------------------------------------------------------------|
|-------------------------------------------------------------------------|

-------------------------------------------------------------------|
-------------------------------------------------------------------|
-----------16-14-13------------------------------------------------|
--17-15-14----------14-12-14-15-14-------14-12---------------------|
-----------------------------------17-15-------15-14-15-14---------|
-----------------------------------------------------------15-17---|

|-------------------------------------------------------------------------------|
|-------------------------------------------------------------------------------|
|-------------------------------------------------------------------------------|
|--14~~----------15~~--14~~-----------14~~--------------------12~~--------------|
|----------------------------17~~-----------17~~--15~~--------------15~~--14~~--|
|----------17---------------------------------------------13--------------------|
   po           po             po                po
|--7-4-------7-10-7--------10-13-10----------10-17-14----------14/22-----|
|------6---6--------9----9----------12----12----------15----15-----------|
|--------7------------10---------------13----------------16--------------|
|------------------------------------------------------------------------|
|------------------------------------------------------------------------|
|------------------------------------------------------------------------|



                                           ______BEND______
|-----------------------------------------|----------------|--------------------|
|-----------------------------------------|----------------|--------------------|
|--21~~---22~~---21---19~~------------19--21---21--21--21--21----19--17---------|
|-----------------------------21--22-------------------------------------19~~~\-|
|-------------------------------------------------------------------------------|
|-------------------------------------------------------------------------------|

|-----------------------------------------------------------------------------|
|--------------------------17-18-17-15----------------------------------------|
|--17-FULL-BEND--16-----16-------------17-16-14-------------------------------|
|-----------------------------------------------18-17-15-14-------------------|
|------------------------------------------------------------17-15-14---------|
|---------------------------------------------------------------------17-16\--|

|--------------------------------------------------|
|--------------------------------------------------|
|--14----------------------------------------------|
|-------14----15~~--17---17---------14-1/2-BEND----|
|-----------------------------17~~-----------------|
|--------------------------------------------------|

|------------------------------------------------------------------------|
|------------------------------------------------------------------------|
|--9----9----------------------------------------------------------------|
|------------9------10----12--------------------9--------9-----10~~~~----|
|------------------------------14---15-----12-------11-------------------|
|------------------------------------------------------------------------|

po= Pull Off
ho= Hammer on
/= Slide up
\= Slide down
~= Finger vibrato
1/2 BEND = HALF BEND

ENJOY
THE EASIEST WAY I LEARNT HOW TO PLAY THIS IS BY PLAYING SMALL BLOCKS AT A TIME, THAT'S 
I'VE BROKEN IT UP BY PUTTING THE (|)BARS IN.
ALSO IF YOU FOLLOW THE TABS ALONG WITH THE INSTRUMENTAL
YOU CAN SEE WHERE THE PARTS BREAK AND CONTINUE SO YOU CAN GET THE RIGHT TIMING.
HAVE FUN
ROCK ON MALMSTEEN
Related for Brothers tab
Brothers chords by Yngwie Malmsteen