Guitaretab - guitar tabs
Song name
# A B C D E F G H I J K L M N O P Q R S T U V W X Y Z

Yngwie Malmsteen - Gimme Gimme Gimme tab

E12s7s0---------------12-----12-------------------------------------------------14-19---19-14-------------------|
B----------------------------12---------------15---12---------------10-12~~--12-15---------------------1512-~~--|
G--------------------9--12-------------------------------12-11-12------------------------------------------------|
D----------------------------------------------------------------------------------------------------------------|
A----------------------------------------------------------------------------------------------------------------|
E----------------------------------------------------------------------------------------------------------------|

[ Tab from: http://www.guitaretab.com/y/yngwie-malmsteen/143723.html ]
E---------------12----12-------0~~~-------------12-----12--------0~~~--0--------12---12-------------------------------------|
B-----------12-----------12-------------------12--------------12-------------------12----------15---12--------------10-12~--|
G----9-12-------------------12---------9-12---------------------12------------12-------------------------12-11-12-----------|
D---------------------------------------------------------------------------------------------------------------------------|
A---------------------------------------------------------------------------------------------------------------------------|
E---------------------------------------------------------------------------------------------------------------------------|

E-----------1419---19--14---------------------------12----12------------0~~~~~~~~~--|
B---12-15----------------------1512~~---------12------------12----------------------|
G------------------------------------------------9-12---------------------12---------|
D------------------------------------------------------------------------------------|
A------------------------------------------------------------------------------------|
E------------------------------------------------------------------------------------|

maybe it didint come out right idk but if it did just put it in word tll fix it! sorry hope u can do this....
Related for Gimme Gimme Gimme tab