Guitaretab - guitar tabs
Song name
# A B C D E F G H I J K L M N O P Q R S T U V W X Y Z

Yngwie Malmsteen - Finale tab

#----------------------------------PLEASE NOTE---------------------------------#
#This file is the author's own work and represents their interpretation of the #
#song. You may only use this file for private study, scholarship, or research. #
#------------------------------------------------------------------------------#

FINALE
As recorded by Yngwie J. Malmsteen
(From the 1998 Album CONCERTO SUITE FOR ELECTRIC GUITAR AND ORCHESTRA OP.1)

Transcribed by Alan Greene
	

Music by Yngwie J. Malmsteen
Arranged by Yngwie J. Malmsteen

Gtr I (D# G# C# F# A# D#) - 'Untitled'

 Theme I
  Q=137
  E7add2                    Am
 4/4
  Gtr I
  |----6----|  |----6-----|  |-----6-----|  |------6-------|
  S S S S S S  S S S  S S S  S S  S S  S S  S  S  S  S  S  S
|-7-4-------4-10-7--------7-12-8---------8-17-12----------12-|
|-----6---6--------9----9--------10---10---------13----13----|
|-------7------------10-------------9---------------14-------|
|------------------------------------------------------------|
|------------------------------------------------------------|
|------------------------------------------------------------|


  E7add2                    Am
  |----6----|  |----6-----|  |-----6-----|  |------6-------|
  S S S S S S  S S S  S S S  S S  S S  S S  S  S  S  S  S  S
|-7-4-------4-10-7--------7-12-8---------8-17-12----------12-|
|-----6---6--------9----9--------10---10---------13----13----|
|-------7------------10-------------9---------------14-------|
|------------------------------------------------------------|
|------------------------------------------------------------|
|------------------------------------------------------------|


  A/C#           Dm                G/B          C
   |-----6-----|  |------6-------|  |----6----|  |----6----|
   S S  S S  S S  S  S  S  S  S  S  S S S S S S  S S S S S S
|-12-9---------9-13-10----------10-10-7-------7-12-8-------8-|
|------10---10---------10----10---------8---8--------8---8---|
|---------9---------------10--------------7------------9-----|
|------------------------------------------------------------|
|------------------------------------------------------------|
|------------------------------------------------------------|


  Bb           Am          E7add2  Am
   |----6----| |----6----|
   S S S S S S S S S S S S S S S S Q
|-10-6-------6-8-5-------5-----4-7-5---|
|------6---6-------5---5-----6---------|
|--------7-----------5-----7-----------|
|--------------------------------------|
|--------------------------------------|
|--------------------------------------|


  E7add2                    Am
  |----6----|  |----6-----|  |-----6-----|  |------6-------|
  S S S S S S  S S S  S S S  S S  S S  S S  S  S  S  S  S  S
|-7-4-------4-10-7--------7-12-8---------8-17-12----------12-|
|-----6---6--------9----9--------10---10---------13----13----|
|-------7------------10-------------9---------------14-------|
|------------------------------------------------------------|
|------------------------------------------------------------|
|------------------------------------------------------------|


  E7add2                    Am
  |----6----|  |----6-----|  |-----6-----|  |------6-------|
  S S S S S S  S S S  S S S  S S  S S  S S  S  S  S  S  S  S
|-7-4-------4-10-7--------7-12-8---------8-17-12----------12--|
|-----6---6--------9----9--------10---10---------13----13-----|
|-------7------------10-------------9---------------14--------|
|-------------------------------------------------------------|
|-------------------------------------------------------------|
|-------------------------------------------------------------|


  A/C#           Dm                G/B          C
   |-----6-----|  |------6-------|  |----6----|  |----6----|
   S S  S S  S S  S  S  S  S  S  S  S S S S S S  S S S S S S
|-12-9---------9-13-10----------10-10-7-------7-12-8-------8-|
|------10---10---------10----10---------8---8--------8---8---|
|---------9---------------10--------------7------------9-----|
|------------------------------------------------------------|
|------------------------------------------------------------|
|------------------------------------------------------------|


  Bb           Am          E7          Am
   |----6----| |----6----| |----6----|
   S S S S S S S S S S S S S S S S S S Q
|-10-6-------6-8-5-------5-7-4-------4-5----|
|------6---6-------5---5-------5---5--------|
|--------7-----------5-----------4----------|
|-------------------------------------------|
|-------------------------------------------|
|-------------------------------------------|


 Theme II
  Am                            Dm
   |-----5-----|  |-----5-----|  |-----5-----|  |-----5-----|
   S  S  S  S  S  S  S  S  S  S  S  S  S  S  S  S  S  S  S  S
|-------------------------------13-12-13-12-10-13-12-13-12-10-|
|-13-12-13-12-10-13-12-13-12-10-------------------------------|
|-------------------------------------------------------------|
|-------------------------------------------------------------|
|-------------------------------------------------------------|
|-------------------------------------------------------------|


  G                           C
   |----5-----|  |----5-----|  |----5-----|  |----5-----|
   S  S  S  S S  S  S  S  S S  S  S  S  S S  S  S  S  S S
|-----------------------------12-10-12-10-8-12-10-12-10-8-|
|-12-10-12-10-8-12-10-12-10-8-----------------------------|
|---------------------------------------------------------|
|---------------------------------------------------------|
|---------------------------------------------------------|
|---------------------------------------------------------|


  F                       Bb
   |---5----|  |---5----|  |---5----|  |---5----|
   S S  S S S  S S  S S S  S S  S S S  S S  S S S
|-------------------------10-8-10-8-6-10-8-10-8-6-|
|-10-8-10-8-6-10-8-10-8-6-------------------------|
|-------------------------------------------------|
|-------------------------------------------------|
|-------------------------------------------------|
|-------------------------------------------------|


  E         F#m         E/G#          Am
  |---5---|  |---5----|  |----5-----|  |-----5-----|
  S S S S S  S S  S S S  S  S  S  S S  S  S  S  S  S
|----------------------------------------------------|
|-9-7-9-7-5-10-9-10-9-7-12-10-12-10-9-13-12-13-12-10-|
|----------------------------------------------------|
|----------------------------------------------------|
|----------------------------------------------------|
|----------------------------------------------------|


  A              Bm             A/C#           Dm
   |-----5-----|  |-----5-----|  |-----5-----|  |-----5-----|
   S  S  S  S  S  S  S  S  S  S  S  S  S  S  S  S  S  S  S  S
|-------------------------------------------------------------|
|-14-12-14-12-10-15-14-15-14-12-17-15-17-15-14-18-17-18-17-15-|
|-------------------------------------------------------------|
|-------------------------------------------------------------|
|-------------------------------------------------------------|
|-------------------------------------------------------------|


  D              E              F#m            E/G#
   |-----5-----|  |-----5-----|  |-----5-----|  |-----5-----|
   S  S  S  S  S  S  S  S  S  S  S  S  S  S  S  S  S  S  S  S
|----------------16-14-16-14-12-17-16-17-16-14-19-17-19-17-16-|
|-19-17-19-17-15----------------------------------------------|
|-------------------------------------------------------------|
|-------------------------------------------------------------|
|-------------------------------------------------------------|
|-------------------------------------------------------------|


  Am
                  |-----5-----|
   E  Q.    +Q    S  S  S  S  S
|-20-17----(17)--20-19-17-16-17-|
|-------------------------------|
|-------------------------------|
|-------------------------------|
|-------------------------------|
|-------------------------------|


   |------------11:8-------------|      |--4:5---|  |--4:5---|
   S  S  S  S  S  S  S  S  S  S  S  E.  T  T  T  T  T  T  T  T
|-19-16-17-16-13--------------------------13-15-17-15-13-------|
|----------------17-15-13--------------17----------------17-15-|
|-------------------------16-14-13-14--------------------------|
|--------------------------------------------------------------|
|--------------------------------------------------------------|
|--------------------------------------------------------------|


   TP TP  TP  TP TP TP TP
                          |----5:6----|  |----5:6----|  |----5:6----|
   S  S  +S   S  S  S  S  T  T  T  T  T  T  T  T  T  T  T  T  T  T  T
|---------------------------------------------------------------------|
|-13------------------------------------------------------------------|
|----14-(14)-17-14-16-13-13-14-13-------------------------------------|
|---------------------------------15-14-13-15-14-13-14-12-10----------|
|------------------------------------------------------------14-12-11-|
|---------------------------------------------------------------------|


 Theme III
 2/2
      |-----5-----|
   E  T  T  T  T  T  E  E  E  E  E  E    E  E  E  +E       +H
|----------------12-17-12-------------|---------------------------|
|-------------13----------13----------|----13-15-(15)b17==(15)----|
|----------14----------------14-13-14-|-16------------------------|
|-------14----------------------------|---------------------------|
|-12-15-------------------------------|---------------------------|
|-------------------------------------|---------------------------|


         G#/B
                     |-----5-----|
   +Q     Q   +Q.    T  T  T  T  T
|----------------------------------|
|-(15)r--15--(15)------------15-17-|
|-------------------14-16-17-------|
|----------------------------------|
|----------------------------------|
|----------------------------------|


                             Am/C
   |------6-------|  |------6-------|  |------6-------|
   S  S  S  S  S  S  S  S  S  S  S  S  S  S  S  S  S  S  Q
|-----------------------------------------------------------|
|-18-17-15--------------------------------------------------|
|----------17-16-14----------16-14-13-----------------------|
|-------------------18-15-14----------15-14-12--------------|
|----------------------------------------------15-14-12-12--|
|-----------------------------------------------------------|


  Dm                                      Am/E
                 |--4:3---|
   +E   S  S  S  S  S  S  S  E  E  E  E    Q      Q   +Q..    S
|------------------------13-16-13-19-16-|-20b22--20--(20)----20-|
|---------------------15----------------|-----------------------|
|------------------16-------------------|-----------------------|
|---------------15----------------------|-----------------------|
|-(12)----14-17-------------------------|-----------------------|
|------16-------------------------------|-----------------------|


  D#7
   S  S  S  S  S  S  S  S  S  S  S  S  S  S  S  S
|-17----------17-20-17-20-17----------17-20-17-19--|
|----19----19----------------19----19--------------|
|-------20----------------------20-----------------|
|--------------------------------------------------|
|--------------------------------------------------|
|--------------------------------------------------|


  Am/E
   |--3--|                    |--3--|
   S  S  S  E  +Q    +Q    E  S  S  S
|-20-19-17-19-(19)--(19)--17-16-17-16-|
|-------------------------------------|
|-------------------------------------|
|-------------------------------------|
|-------------------------------------|
|-------------------------------------|


  E
                                                   |--3--|  |--4:3---|
   T  T  T  T  T  T  T  T  T  T  T  T  T  T  S  S  S  S  S  S  S  S  S E
|------------------------------------------------------------------------|
|-18-17-15---------------------------------------------------------------|
|----------17-16-14-13-14-16-14-13-16-14-13----13------------------------|
|-------------------------------------------15----15-14-12-10-14-12-10-9-|
|------------------------------------------------------------------------|
|------------------------------------------------------------------------|


  Am                        G#/B
   E  E  E  E  E  E  E  E    E  E  E  E  H
|----------------12-17-12-|-13-12-10----10----|
|-------------13----------|----------13-------|
|----------14-------------|-------------------|
|-------14----------------|-------------------|
|-12-15-------------------|-------------------|
|-------------------------|-------------------|


  Am/C
                          |--3--|
   +Q    +E   S  S  S  S  S  S  S  S  S  S  S
|-(10)--(10)----------------10-12-13-12-10----|
|------------13-12-10-12-13----------------13-|
|---------------------------------------------|
|---------------------------------------------|
|---------------------------------------------|
|---------------------------------------------|

[ Tab from: http://www.guitaretab.com/y/yngwie-malmsteen/170457.html ]
  Dm                                         Am/E
   S  S  S  S  S  S  S  S S  S S S S S S S   S S S S S S S S S S E Q
|------------------------------------------|--------------------------|
|-12-10----10-12-10------------9-6-5---6-5-|-----5--------------------|
|-------13----------13-10-9-10-------5-----|-5-5---5-5-4---5-4--------|
|------------------------------------------|-------------7-----6-7-7--|
|------------------------------------------|--------------------------|
|------------------------------------------|--------------------------|


  D#7
                                  |-----5-----|
  S  S  S S  S S  S  S  S S  S S  S  S  S  S  S
|---------8-11-8----------8-11-8-12-13-12-10----|
|------10--------10----10--------------------13-|
|-8-11--------------11--------------------------|
|-----------------------------------------------|
|-----------------------------------------------|
|-----------------------------------------------|


  Am/E
   |----------9:6----------|               |-------7:5-------|
   S  S  S  S  S  S  S  S  S  E      +E    S  S  S  S  S  S  S  S
|-------12-13-12-10----------22b24==(22)r-12-13-12-10----------12-|
|-12-10-------------13-12-10--------------------------13-12-10----|
|-----------------------------------------------------------------|
|-----------------------------------------------------------------|
|-----------------------------------------------------------------|
|-----------------------------------------------------------------|


  E                       Am
               |--3---|    |---3---|  |-------7:5-------|     |----------9:6----------|
   H.         +E   E  E    E  +E   E  S  S  S  S  S  S  S  S  S  S  S  S  S  S  S  S  S
|-22b24------(22)r17-16-|-17-(17)-16-13-------------------------------------------------|
|-----------------------|---------------17-15-13----------------------------------------|
|-----------------------|------------------------16-14-13-14-16-14-13-------------------|
|-----------------------|---------------------------------------------15-14-12----------|
|-----------------------|------------------------------------------------------15-14-12-|
|-----------------------|---------------------------------------------------------------|


   |------6-------|
   S  S  S  S  S  S  H    Q
|-----------------------------|
|-----------------------------|
|-----------------------------|
|-15-14-12--------------------|
|----------15-14-12-12--------|
|-----------------------------|


 Theme Ib
  E7add2                    Am
 4/4
  |----6----|  |----6-----|  |-----6-----|  |------6-------|
  S S S S S S  S S S  S S S  S S  S S  S S  S  S  S  S  S  S
|-7-4-------4-10-7--------7-12-8---------8-17-12----------12-|
|-----6---6--------9----9--------10---10---------13----13----|
|-------7------------10-------------9---------------14-------|
|------------------------------------------------------------|
|------------------------------------------------------------|
|------------------------------------------------------------|


  E7add2                    Am
  |----6----|  |----6-----|  |-----6-----|  |------6-------|
  S S S S S S  S S S  S S S  S S  S S  S S  S  S  S  S  S  S
|-7-4-------4-10-7--------7-12-8---------8-17-12----------12-|
|-----6---6--------9----9--------10---10---------13----13----|
|-------7------------10-------------9---------------14-------|
|------------------------------------------------------------|
|------------------------------------------------------------|
|------------------------------------------------------------|


  A/C#           Dm                G/B          C
   |-----6-----|  |------6-------|  |----6----|  |----6----|
   S S  S S  S S  S  S  S  S  S  S  S S S S S S  S S S S S S
|-12-9---------9-13-10----------10-10-7-------7-12-8-------8-|
|------10---10---------10----10---------8---8--------8---8---|
|---------9---------------10--------------7------------9-----|
|------------------------------------------------------------|
|------------------------------------------------------------|
|------------------------------------------------------------|


  Bb           Am      E7      Am
   |----6----| |-4:3-|
   S S S S S S S S S S E S S S Q
|-10-6-------6-8-5-----8-7-4-7-5--|
|------6---6-------5--------------|
|--------7-----------5------------|
|---------------------------------|
|---------------------------------|
|---------------------------------|


  E7add2                    Am
  |----6----|  |----6-----|  |-----6-----|  |------6-------|
  S S S S S S  S S S  S S S  S S  S S  S S  S  S  S  S  S  S
|-7-4-------4-10-7--------7-12-8---------8-17-12----------12-|
|-----6---6--------9----9--------10---10---------13----13----|
|-------7------------10-------------9---------------14-------|
|------------------------------------------------------------|
|------------------------------------------------------------|
|------------------------------------------------------------|


  E7add2                    Am
  |----6----|  |----6-----|  |-----6-----|  |------6-------|
  S S S S S S  S S S  S S S  S S  S S  S S  S  S  S  S  S  S
|-7-4-------4-10-7--------7-12-8---------8-17-12----------12--|
|-----6---6--------9----9--------10---10---------13----13-----|
|-------7------------10-------------9---------------14--------|
|-------------------------------------------------------------|
|-------------------------------------------------------------|
|-------------------------------------------------------------|


  A/C#           Dm                G/B          C
   |-----6-----|  |------6-------|  |----6----|  |----6----|
   S S  S S  S S  S  S  S  S  S  S  S S S S S S  S S S S S S
|-12-9---------9-13-10----------10-10-7-------7-12-8-------8-|
|------10---10---------10----10---------8---8--------8---8---|
|---------9---------------10--------------7------------9-----|
|------------------------------------------------------------|
|------------------------------------------------------------|
|------------------------------------------------------------|


  Bb           Am          E7        Am
   |----6----| |----6----| |-4:3-|
   S S S S S S S S S S S S S S S S S +Q
|-10-6-------6-8-5-------5-7-4-----5-(5)--|
|------6---6-------5---5-------5----------|
|--------7-----------5-----------4--------|
|-----------------------------------------|
|-----------------------------------------|
|-----------------------------------------|


 Theme IIb
  Am                            Dm
   |-----5-----|  |-----5-----|  |-----5-----|  |-----5-----|
   S  S  S  S  S  S  S  S  S  S  S  S  S  S  S  S  S  S  S  S
|-------------------------------13-12-13-12-10-13-12-13-12-10-|
|-13-12-13-12-10-13-12-13-12-10-------------------------------|
|-------------------------------------------------------------|
|-------------------------------------------------------------|
|-------------------------------------------------------------|
|-------------------------------------------------------------|


  G                           C
   |----5-----|  |----5-----|  |----5-----|  |----5-----|
   S  S  S  S S  S  S  S  S S  S  S  S  S S  S  S  S  S S
|-----------------------------12-10-12-10-8-12-10-12-10-8-|
|-12-10-12-10-8-12-10-12-10-8-----------------------------|
|---------------------------------------------------------|
|---------------------------------------------------------|
|---------------------------------------------------------|
|---------------------------------------------------------|


  F                       Bb
   |---5----|  |---5----|  |---5----|  |---5----|
   S S  S S S  S S  S S S  S S  S S S  S S  S S S
|-------------------------10-8-10-8-6-10-8-10-8-6-|
|-10-8-10-8-6-10-8-10-8-6-------------------------|
|-------------------------------------------------|
|-------------------------------------------------|
|-------------------------------------------------|
|-------------------------------------------------|


  E         F#m         E/G#          Am
  |---5---|  |---5----|  |----5-----|  |-----5-----|
  S S S S S  S S  S S S  S  S  S  S S  S  S  S  S  S
|----------------------------------------------------|
|-9-7-9-7-5-10-9-10-9-7-12-10-12-10-9-13-12-13-12-10-|
|----------------------------------------------------|
|----------------------------------------------------|
|----------------------------------------------------|
|----------------------------------------------------|


  A              Bm             A/C#           Dm
   |-----5-----|  |-----5-----|  |-----5-----|  |-----5-----|
   S  S  S  S  S  S  S  S  S  S  S  S  S  S  S  S  S  S  S  S
|-------------------------------------------------------------|
|-14-12-14-12-10-15-14-15-14-12-17-15-17-15-14-18-17-18-17-15-|
|-------------------------------------------------------------|
|-------------------------------------------------------------|
|-------------------------------------------------------------|
|-------------------------------------------------------------|


  D              E              D/F#           E/G#
   |-----5-----|  |-----5-----|  |-----5-----|  |-----5-----|
   S  S  S  S  S  S  S  S  S  S  S  S  S  S  S  S  S  S  S  S
|----------------16-14-16-14-12-17-16-17-16-14-19-17-19-17-16-|
|-19-17-19-17-15----------------------------------------------|
|-------------------------------------------------------------|
|-------------------------------------------------------------|
|-------------------------------------------------------------|
|-------------------------------------------------------------|


 Outro Theme
  Am
   |------6-------|  |-----5-----|  |-----5-----|  |--3--|
   S  S  S  S  S  S  S  S  S  S  S  S  S  S  S  S  S  S  S  S  S    W
|-20-19-17-16----------------------------------------------------|-------|
|-------------18-17-15-------------------------------------------|-------|
|----------------------17-16-14-13-------------------------16-13-|-14----|
|----------------------------------15-14-12-------------14-------|-------|
|-------------------------------------------15-14-12-15----------|-------|
|----------------------------------------------------------------|-------|


                                                              E
   |--------7--------|  |--------7--------|  |------6-------|  |------6-------|
   S  S  S  S  S  S  S  S  S  S  S  S  S  S  S  S  S  S  S  S  S  S  S  S  S  S
|-20-19-17-16-17-19-20-19-17-16-17-19-20-19-17-16-17-19-20-19-17-16-17-19-20-19-|
|-------------------------------------------------------------------------------|
|-------------------------------------------------------------------------------|
|-------------------------------------------------------------------------------|
|-------------------------------------------------------------------------------|
|-------------------------------------------------------------------------------|


  Am                E
 2/4
   |------6-------|  |------6-------|
   S  S  S  S  S  S  S  S  S  S  S  S
|-17-16-17-19-20-19-17-16-17-19-20-19--|
|--------------------------------------|
|--------------------------------------|
|--------------------------------------|
|--------------------------------------|
|--------------------------------------|


  Am
 4/4
   |------3------|      |----3-----|
   Q      Q      Q      Q      Q  +Q
|-19tr20-16tr17-----------------------|
|---------------16tr17----------------|
|----------------------16tr17-14-(14)-|
|-------------------------------------|
|-------------------------------------|
|-------------------------------------|


                           |------6-------|
   S  S  S  S  S  S  S  S  S  S  S  S  S  S  S  S  S  S
|----------------12-17-12----------------12-17-12-17-12-|
|-------------13----------------------13----------------|
|----------14----------------------14-------------------|
|-------14----------------------14----------------------|
|-12-15-------------------12-15-------------------------|
|-------------------------------------------------------|


  H.=H  Q=115
   H     +Q    Q     W           +W
|-17----(17)\-----|-----------|---------*|
|-----------------|-10--------|-(10)----*|
|-----------------|-----------|---------*|
|-----------------|--7--------|--(7)----*|
|-----------------|-----------|---------*|
|-----------------|--5--------|--(5)----*|



Duration Legend
---------------
W - whole; H - half; Q - quarter; E - 8th; S - 16th; T - 32nd; X - 64th; a - acciaccatura
+ - note tied to previous; . - note dotted; .. - note double dotted
Uncapitalized letters represent notes that are staccato (1/2 duration)
Irregular groupings are notated above the duration line
Duration letters will always appear directly above the note/fret number it represents the
duration for.  Duration letters with no fret number below them represent rests.  Multi-
bar rests are notated in the form Wxn, where n is the number of bars to rest for.  Low
melody durations appear below the staff

Tablature Legend
----------------
 h   - hammer-on
 p   - pull-off
 b   - bend
 pb  - pre-bend
 r   - bend release (if no number after the r, then release immediately)
 /\  - slide into or out of (from/to "nowhere")
 s   - legato slide
 S   - shift slide
 - natural harmonic
[n]  - artificial harmonic
n(n) - tapped harmonic
 ~   - vibrato
 tr  - trill
 T   - tap
 TP  - trem. picking
 PM  - palm muting
\n/  - tremolo bar dip; n = amount to dip
 \n  - tremolo bar down
 n/  - tremolo bar up
/n\  - tremolo bar inverted dip
 =   - hold bend; also acts as connecting device for hammers/pulls
 <> - volume swell (louder/softer)
 x   - on rhythm slash represents muted slash
 o   - on rhythm slash represents single note slash

Misc Legend
-----------
 |  - bar
||  - double bar
||o - repeat start
o|| - repeat end
*|  - double bar (ending)
 :  - bar (freetime)
 $  - Segno
 &  - Coda
Tempo markers -  = BPM(8/16=s8/s16), where s8 = swing 8ths, s16 = swing 16ths

Related for Finale tab