Guitaretab - guitar tabs
Song name
# A B C D E F G H I J K L M N O P Q R S T U V W X Y Z

Yngwie Malmsteen - Never Die tab

-------------------------------------------------------------------------------
			     Never Die (solo)  Yngwie Malmsteen
-------------------------------------------------------------------------------
Tabbed by: Daannn
Email: dan-ver.2007@hotmail.co.uk

Apologies for the awful lines, I usually use Powertab. I can put the whole song up if 
wants it but itd be on Powertab software.

Tuning: Eb
       |`````````5`````````|                    |````3```|
eb|---10h12h13h12h10------------------------------------------------------------|
Bb|------------------------13-12-10-9-12-10-9-----------------------------------|
Gb|-------------------------------------------------10-9\7----------------------|
Db|----------------------------------------------------------10-----------------|
Ab|-----------------------------------------------------------------------------|
Eb|-----------------------------------------------------------------------------|

                       |```3```|
eb|-----------------------------------------------------------------------------|
Bb|---9-7-----------------7-9-10-9-7-9-7----------------------------------------|
Gb|--------10-9-7-9-10---------------------10-----------------------------------|
Db|-----------------------------------------------------------------------------|
Ab|-----------------------------------------------------------------------------|
Eb|-----------------------------------------------------------------------------|

                      |```3```|
eb|-----------------------------------------------------------------------------|
Bb|----------------------------------------------10-----------------------------|
Gb|--------------7-9-11-------------9-10-12-------------------------------------|
Db|---9-9-9-10---------9-9-10-12------------------------------------------------|
Ab|-----------------------------------------------------------------------------|
Eb|-----------------------------------------------------------------------------|

eb|-------------------10-12-13-12-10--------------/-21b-(24)--------------------|
Bb|-----10-12s13----------------------13p12p10----------------------------------|
Gb|-----------------------------------------------------------------------------|
Db|-----------------------------------------------------------------------------|
Ab|-----------------------------------------------------------------------------|
Eb|-----------------------------------------------------------------------------|

eb|----12h13p12p10---------------/-21b(24)\-------------------------------------|
Bb|---------------------13p12p10------------------------------------------------|
Gb|-----------------------------------------------------------------------------|
Db|-----------------------------------------------------------------------------|
Ab|-----------------------------------------------------------------------------|
Eb|-----------------------------------------------------------------------------|

eb|---12h13p12p10--------------/17s21b(24)--------------------------------------|
Bb|--------------------13p12p10-------------------------------------------------|
Gb|-----------------------------------------------------------------------------|
Db|-----------------------------------------------------------------------------|
Ab|-----------------------------------------------------------------------------|
Eb|-----------------------------------------------------------------------------|

eb|-----------------------------------------------------(21)w/bar~~~~~~---------|
Bb|-----------------------------------------------------------------------------|
Gb|-----------------------------------------------------------------------------|
Db|-----------------------------------------------------------------------------|
Ab|-----------------------------------------------------------------------------|
Eb|-----------------------------------------------------------------------------|

eb|~~~~~~~~~~~~~~~~~~~~~~~~~~~~~~~~~~~~~~~~~(21)\---|
Bb|---------------------------------------------------------------------------|
Gb|---------------------------------------------------------------------------|
Db|---------------------------------------------------------------------------|
Ab|---------------------------------------------------------------------------|
Eb|---------------------------------------------------------------------------|

       |``````````5````````| |````3````|          |````3````| |```3``|
eb|---10h12h13p12p10------------------------------------------------------------|
Bb|------------------------13-12-10-9-10-12-10-9--------------------------------|
Gb|-----------------------------------------------------10-9-9------------------|
Db|-----------------------------------------------------------------------------|
Ab|-----------------------------------------------------------------------------|
Eb|-----------------------------------------------------------------------------|

     |````3````| |````3```|                 |```3```|
eb|------------------------------------------------------------------------------|
Bb|------------------------------------------------------------------------------|
Gb|------9--7-----7------------------7-9-10--------------------------------------|
Db|--10-------10----10-9-7-9h10--------------------------------------------------|
Ab|------------------------------------------------------------------------------|
Eb|------------------------------------------------------------------------------|

                     |````3``||```3```|
eb|-----------------------------------------------------------------------------|
Bb|-----------------------------------------------------------------------------|
Gb|---9p7-9-7-------------------------------------------------------------------|
Db|-------------10-9-7-10-9-7-6-9-7-6-------------------------------------------|
Ab|-----------------------------------------------------------------------------|
Eb|-----------------------------------------------------------------------------|

        |````3```| |``3``|
eb|-----------------------------------------------------------------------------|
Bb|-----------------------------------------------------------------------------|
Gb|-----------------------------------------------------------------------------|
Db|-----7p6----7p6--------------------------------------------------------------|
Ab|-----------8------8-7\5------7-5---------------------------------------------|
Eb|--------------------------8-7------8-7-5-------------------------------------|

       |``3````||``3```||``3``|             |```3````||```3```|                  |```3````|
eb|-----------------------------------|--------------------------------------------|
Bb|----------------------------------|---------------------------------------------|
Gb|----------------------------------||---------7-9-10-11-----------9-10-12--------|
Db|----------------------7-6-7-9-7-|-7-9-10-------------9-10-12--------------------|
Ab|---------------8-5-8-------------|----------------------------------------------|
Eb|---4-5-7-5-7--------------------|-----------------------------------------------|
[ Tab from: http://www.guitaretab.com/y/yngwie-malmsteen/183905.html ]
eb|----------12h13p12p10------------/21b(24)-|--(21)b(24)~~~~~~~------------------|
Bb|-10h12-----------------------------------------|-------------------------------|
Gb|--------------------------0h2s3----------------|-------------------------------|
Db|-------------------------------------------------|-----------------------------|
Ab|-------------------------------------------------|-----------------------------|
Eb|-------------------------------------------------|-----------------------------|

    |`````3````| |````3`````| |`````3````| |````3`````|
eb|-17-13-16-17-16p13-----13-16-17-16p13----------------------------------------|
Bb|-------------------------15--------------------------------------------------|
Gb|-----------------------------------------------------------------------------|
Db|-----------------------------------------------------------------------------|
Ab|-----------------------------------------------------------------------------|
Eb|-----------------------------------------------------------------------------|

    |```3``````| |`````3`````||`````3````| |````3`````|
eb|-17-13-16-17-16p13-19-13-16-17-16p13-----------------------------------------|
Bb|-----------------------------------------------------------------------------|
Gb|-----------------------------------------------------------------------------|
Db|-----------------------------------------------------------------------------|
Ab|-----------------------------------------------------------------------------|
Eb|-----------------------------------------------------------------------------|

                                                  |````3`````|
eb|--19-16-17-19-20-19-17s16-19-16-17-19-17-16----------------------------------|
Bb|---------------------------------------------------------18------------------|
Gb|-----------------------------------------------------------------------------|
Db|-----------------------------------------------------------------------------|
Ab|-----------------------------------------------------------------------------|
Eb|-----------------------------------------------------------------------------|

      |```````````||```````3```````||````3```|
eb|--17-----16-17-16---------16--------16---------------------------------------|
Bb|-----18-------------18-17-----17-18----18-17s15------------------------------|
Gb|-----------------------------------------------------------------------------|
Db|-----------------------------------------------------------------------------|
Ab|-----------------------------------------------------------------------------|
Eb|-----------------------------------------------------------------------------|

             |````3````|                      |`````3`````| |````3`````|
eb|-----------------------------------------------------------------------------|
Bb|-17h18-17-15-17-15-13p12-15-13-12-10-13-12-----------------------------------|
Gb|-----------------------------------------------------------------------------|
Db|-----------------------------------------------------------------------------|
Ab|-----------------------------------------------------------------------------|
Eb|-----------------------------------------------------------------------------|

                                              |```3```| |````3```|
eb|------------------------------------------------------------------------------|
Bb|-10s9-10----10-------10-9-9-10-9-8-9-10---------------------------------------|
Gb|-----------10----9h10---------------------------------------------------------|
Db|------------------------------------------------------------------------------|
Ab|------------------------------------------------------------------------------|
Eb|------------------------------------------------------------------------------|

                      |````3```||````3```||````3``|
eb|------------------------------------------------------------------------------|
Bb|--8----10-9-8-9-10---10-10-8-10-9---------------------------------------------|
Gb|----10----------------7-------------------------------------------------------|
Db|------------------------------------------------------------------------------|
Ab|------------------------------------------------------------------------------|
Eb|------------------------------------------------------------------------------|
                    |````3```|
eb|-----------------------------------------------------------------------------|
Bb|---8-------------------------------------------------------------------------|
Gb|-----10s9-10-9-7-------------------------------------------------------------|
Db|---------------------10s9-7-9-10-7-10-7--------------------------------------|
Ab|-----------------------------------------------------------------------------|
Eb|-----------------------------------------------------------------------------|

       |````3```|                    |```3````|                         
                 |````3```|
eb|-------------------------7s8----12h13p12p10----|------------------------------------------------|
Bb|------------------8h10-----12-----------------13p|-12p10-12-------------------------------------|
Gb|---------9-10-9------------------------------------|-------------10p9s7-9h10p9p7-9p7------------|
Db|---9-10---------------------------------------------|----------------------------------------10h|
Ab|-----------------------------------------------------|------------------------------------------|
Eb|-----------------------------------------------------|------------------------------------------|
     |```3```||```3````||```3````| |```3```||```3````| |``3``||```3```| |``3````|
eb|--------------------------------------|----------------------------------------|
Bb|-------------------------------------|-----------------------------------------|
Gb|---------10p7h9-10p9p7---------|-----------------------------------------------|
Db|-9p7h9--------------------10p7-9|10p9p7-9-6-7-9p7p6-9p7h9----------------------|
Ab|-------------------------------------|-----------------------------------------|
Eb|-------------------------------------|-----------------------------------------|

     |````3````|            |````3```||`````3`````|  |````3`````| |````3`````||`````3`````|
eb|-------------------------------------------|-------------13-10-12-13p12p10---/21b(24-----------|
Bb|--------------------------------12p9-10|-12p10-10----------------------------------------------|
Gb|-----------10-9-7h9-10-9-7-----------|---------------------------------------------------------|
Db|-10p9p7--------------------------------|-------------------------------------------------------|
Ab|------------------------------------------|----------------------------------------------------|
Eb|------------------------------------------|-------------------------------------------------\--|

eb|-----------(21)w/bar~~~~~~~~~~~~~~~~~~~~~~~~~~~-~~~~-------------------------|
Bb|-----------------------------------------------------------------------------|
Gb|-----------------------------------------------------------------------------|
Db|-----------------------------------------------------------------------------|
Ab|-----------------------------------------------------------------------------|
Eb|-----------------------------------------------------------------------------|
                                                                    [pickslide]
eb|-~~~~~~~~~~~~~~~~~~~~~~~~~~~~----x-\-------------------------------------------|
Bb|---------------------------------------------------x-\-------------------------|
Gb|---------------------------------------------------x-\-------------------------|
Db|---------------------------------------------------x-\-------------------------|
Ab|----------------------------------------------------x-\------------------------|
Eb|------------------------------------------------------x\-----------------------|


| /  slide up
|s legato slide
| \  slide down
| d legato slide down
| h  hammer-on
| p  pull-off
| ~  vibrato
| +  harmonic
| x  Mute note
==========================================================================
Related for Never Die tab