Song name
# A B C D E F G H I J K L M N O P Q R S T U V W X Y Z

Yngwie Malmsteen - Damnation Game tab

|-----------------------------------------------------------------------------------|
|-9-------10--------9------7-------9---------7------5-------7---------5-------------|
|-7-7-7-7-7-7-7-7-7-7------5-5-5-5-5-5-5-5-5-5------3-3-3-3-3-3-3-3-3-3-------------|
|-----------------------------------------------------------------------------------|
|---------------------------------------------------------------------------2-3-5---|
|-----------------------------------------------------------------------------------|
     
|--------------------------------------------------------------|
|-9-------10--------9------------------------------------------|
|-7-7-7-7-7-7-7-7-7-7----10-12-10-9h10-------------------------|
|--------------------------------------12-10-12----------------|
|--------------------------------------------------------------|
|--------------------------------------------------------------|

Tap to rate this tab
# A B C D E F G H I J K L M N O P Q R S T U V W X Y Z