Song name
# A B C D E F G H I J K L M N O P Q R S T U V W X Y Z

Yngwie Malmsteen - Fire And Ice tab

F#||-------------------|--------------------------------------|
C#||-------------------|--------------------------------------|
G#||-------------------|-----------3--3--3--2--2--2--5--5--5--|
D#||-------------------|--5--5--5-----------------------------|
 
---------------------------------------|--------------------------------------|
---------------------------------------|--------------------------------------|
--3--3--3--7--7--7--5--5--5--10--8--7--|-----------3--3--3--2--2--2--5--5--5--|
---------------------------------------|--5--5--5-----------------------------|


       
---------------------------------------|----------------------|
---------------------------------------|----------------------|
--3--3--3--7--7--7--5--5--5--10--8--7--|-------------5--------|
---------------------------------------|--5-------------------|

   
----------------------|----------------------|----------------------|
----------------------|----------------------|----------------------|
-------------3--------|-------------1--------|----------------------|
--3-------------------|--1-------------------|--0----2----4----5----|


          
----------------------|----------------------|--------------------|-------|
----------------------|-------2----4----6----|--7-----------------|-------|
-------2----4----5----|--5-------------------|--------------------|-------|
--5-------------------|----------------------|-----------5--------|-------|


-------|-------||
-------|-------||
-------|-------||
-------|-------||
Tap to rate this tab
 
# A B C D E F G H I J K L M N O P Q R S T U V W X Y Z