Yngwie Malmsteen - Valley Of The Kings tab

I couldn't find this anywhere so had a bash at it by ear. please add to this and upload




tuning half step down


E|----------------------------|------------------------------|----------------------------|
B|----------------------------|------------------------------|----------------------------|
G|----------------------------|------0-----------------------|----------------------------|
D|------5-7-9-5-7-----4-5-7-4-|5-------3-2-0-----------------|------5-7-9-5-7-----4-5-7-4-|
A|-----------------6----------|---3----------3-2-0---2-0-----|-----------------6----------|
E|0--0------------------------|--------------------3-----2-3-|0--0------------------------|

------------------------------|
------1-0---------------------|
----------2-1-----------------|
5-------------3-2-0---2-0-----|
---3----------------3-----2-3-|
------------------------------|


E|----------------------------|------------------------------|
B|----------------------------|------1-0---------------------|
G|------5-7-9-5-7-----4-5-7-4-|5---------2-1-----------------|
D|-----------------6----------|---3----------3-2-0---2-0-----|
A|0--0------------------------|--------------------3-----2-3-|
E|----------------------------|------------------------------|


repeat
Tap to rate this tab
 
# A B C D E F G H I J K L M N O P Q R S T U V W X Y Z