Song name
# A B C D E F G H I J K L M N O P Q R S T U V W X Y Z

Yngwie Malmsteen - Get Out Of My Jungle tab

standard tuning (E A D G B e)

guitar 1 (distorted)
guitar 2 (distorted)
guitar 3 (clean)
guitar 4 (clean)

Intro
-------------------------------|
-------7-5-7qb-5-5-------------|
-------7-5-7qb-5-5-------------|
-7-5-7------------7-5----------|
-7-5-7---------------7-5-------|
------------------------8-5-5~-|


RIFF Guitar1&2
-----------------------|
-----------------------|
-2-2-----4-2-2-----5/4-|
-2-2-2-2-4-2-2-2-2-5/4-|
-0-0-2-2-2-0-0-2-2-3/2-|
-----0-0-------0-0-----|
repeated 4 times

VERSE 1 Guitar 3&4
-0-0-----0-0-|
-0--0------0-|
-2---2--2--1-|
-2----2----2-|
-0-----0---2-|
-----------0-|
repeat 4 times

Pre Chorus Guitar 1&2
-------|
-------|
-4-5-7-|
-4-5-7-|
-2-3-5-|
-------|

Chorus (play intro riff)
3X


Verse 2&3
same as verse one


Solo
--------------------------------------------------|tremolo pick the next part
-18fb18fb18fbrp15-15------------------------------|
------------------17fbr-15-15---------------------|
------------------------------17-15---------------|
-----------------------------------17-15----------|
----------------------------------------18-17-15~-|

-----------------------------18fbr18-15--------------------------------------|
---------------------15-18fbr----------18-15---------------------------------|
----------------15-17-----------------------17-15-15-15-15-15-15-17-17-17-15-|
-----------15-17-------------------------------------------------------------|
------15-17------------------------------------------------------------------|
-15-17-----------------------------------------------------------------------|


------------------------------------------------------|
------------------------------7-5-7qb-5-5-------------|
-15-15~-----------------------7-5-7qb-5-5-------------|
-------17-15------------7-5-7------------7-5----------|
------------17-15-------7-5-7---------------7-5-------|
-----------------18-15~------------------------8-5-5~-|
END solo

repeat Chorus twice then end on this
Outro
-------|
-------|
-4-2---|
-4-2-2-|
-2-0-2-|
-----0-| let last note ring out


Song structure

Intro
Riff
Verse 1
Chorus
Verse 2
Chorus
Verse 3
Chorus
Solo
Chorus
Outro

Song Made by Chris
Tap to rate this tab
# A B C D E F G H I J K L M N O P Q R S T U V W X Y Z