Song name
# A B C D E F G H I J K L M N O P Q R S T U V W X Y Z

Yngwie Malmsteen - Overture 1622 tab

#----------------------------------PLEASE NOTE---------------------------------#
#This file is the author's own work and represents their interpretation of the #
#song. You may only use this file for private study, scholarship, or research. #
#------------------------------------------------------------------------------#

OVERTURE 1622
As recorded by Yngwie Malmsteen
(From the 1995 Album MAGNUM OPUS)

Transcribed by Starnouf (http://starnouf.chez.tiscali.fr/)
	



Gtr I (E A D G B E) - 'Gtr1'
Gtr II (E A D G B E) - 'Gtr2'
Gtr III (E A D G B E) - 'Gtr3'

  Q=134
 4/4
  Gtr I
                               ~~~
          |-3--|
  E E E E S  S S S S Q        +W
|-------7-9h10p9-7-6-7------|-(7)----------------------------------|
|-----7---------------------|--------------------------------------|
|---7-----------------------|--------------------------------------|
|-9-------------------------|--------------------------------------|
|---------------------------|--------------------------------------|
|---------------------------|--------------------------------------|
|
| Gtr II
| H       Q          E  S S    E   S  S  E  S  S E S  S  S  S S  S
|----------------------10-9-|--------------------------------------|
|---------------------------|-12--12-11----------------------------|
|---------------------------|-----------12-12-11-9-9----------9----|
|---------------------------|------------------------12-11-12---11-|
|---------------------------|--------------------------------------|
|---------------------------|--------------------------------------|


                |--3--|
    E   E  E E  S  S  S S  S Q
|------------9-10h12p10-9----9-------|
|-------------------------12---------|
|-------9-12-------------------------|
|--11--------------------------------|
|------------------------------------|
|------------------------------------|
|
|   ~~~~~
|  +H..                         S  S
|------------------------------12-11-|
|------------------------------------|
|------------------------------------|
|-(11)-------------------------------|
|------------------------------------|
|------------------------------------|


                                   ~~~~
  +H..                     S  S    H..                S  S
|-(9)---------------------12-14-|-15--------------------12-|
|-------------------------------|--------------------15----|
|-------------------------------|--------------------------|
|-------------------------------|--------------------------|
|-------------------------------|--------------------------|
|-------------------------------|--------------------------|
|
|                     ~~                      ~~~
|  E   S  S  E  S  S  H            E    S  S  H.
|--9---9------------------------|------15-17-19------------|
|--------12-11-11---------------|--------------------------|
|-----------------12-11---------|--------------------------|
|-------------------------------|--x-----------------------|
|-------------------------------|--------------------------|
|-------------------------------|--------------------------|


   ~~~~                        ~~~~
   H..                S  S     W
|-14-----------------------|-------------------|
|--------------------12-14-|--15---------------|
|--------------------------|-------------------|
|--------------------------|-------------------|
|--------------------------|-------------------|
|--------------------------|-------------------|
|
|             ~~~                        ~~~
|  E    S  S  H.              +E   S  S  H.
|--------------------------|---------14-13-----|
|------12-14-15------------|-(15)-15-----------|
|--------------------------|-------------------|
|--------------------------|-------------------|
|--------------------------|-------------------|
|--x-----------------------|-------------------|


    |-----5-----| |----5-----|  |------6------|  |--------7--------|
    S   S  S S  S S  S S  S  S  S  S S  S  S  S  S  S  S  S  S  S  S
|--------------------------------------------------------------------|
|--------------------------------------------------------------------|
|------------------------------------9-11-12----------11-14-12-11----|
|----------------------9-11-11-12-12---------11-12-14-------------14-|
|------------9----9-10-----------------------------------------------|
|---9--10-12---12----------------------------------------------------|
|
|  +H                           H
|-(13)---------------------------------------------------------------|
|--------------------------------------------------------------------|
|--------------------------------------------------------------------|
|--------------------------------------------------------------------|
|--------------------------------------------------------------------|
|--------------------------------------------------------------------|


   |--------7--------|  |--------7--------|  |--------7--------|  |-----5-----|
   S  S  S  S  S  S  S  S  S  S  S  S  S  S  S  S  S  S  S  S  S  S  S  S  S  S
|----------------------------------15-14-12----------14-15-14-12----------------|
|-------11-12-14-15-14-12-15-14-12----------15-14-12-------------14-12-14-15-12-|
|-11-12-------------------------------------------------------------------------|
|-------------------------------------------------------------------------------|
|-------------------------------------------------------------------------------|
|-------------------------------------------------------------------------------|
|
|                                         W
|-------------------------------------------------------------------------------|
|-------------------------------------------------------------------------------|
|-------------------------------------------------------------------------------|
|-------------------------------------------------------------------------------|
|-------------------------------------------------------------------------------|
|-------------------------------------------------------------------------------|


            |-3--|                                |-3--|
    E E E E S  S S S S Q         E  E     E  E    S  S S S  S  Q
||--------7-9h10p9-7-6-7------|--------------7----9h10p9-7--6--7---------|
||o-----7---------------------|-----------7------------------------------|
||----7-----------------------|-----7------------------------------------|
||--9-------------------------|--9---------------------------------------|
||o---------------------------|------------------------------------------|
||----------------------------|------------------------------------------|
|
|   H       Q          E  S S    E  S  S  E  S  S E      S  S  S  S S  S
||-----------------------10-9-|------------------------------------------|
||o---------------------------|-12-12-11---------------------------------|
||----------------------------|----------12-12-11-9------9----------9----|
||----------------------------|----------------------------12-11-12---11-|
||o---------------------------|------------------------------------------|
||----------------------------|------------------------------------------|


              |--3--|
   E  E  E E  S  S  S S  S Q
|----------9-10h12p10-9----9--------|
|-----------------------12----------|
|-----9-12--------------------------|
|-11--------------------------------|
|-----------------------------------|
|-----------------------------------|
|
|  H.                      E  S  S
|----------------------------12-10--|
|-----------------------------------|
|-----------------------------------|
|--8--------------------------------|
|-----------------------------------|
|-----------------------------------|


                    |--3--|
   E E     E  E     S  S  S S  S E  S  S
|-------------9----10h12p10-9----9-12-14-|
|-----------------------------12---------|
|----9----12-----------------------------|
|-11-------------------------------------|
|----------------------------------------|
|----------------------------------------|
|
|                   ~~~
|  E S  S  E  S  S  H
|--9-9-----------------------------------|
|------12-11-11--------------------------|
|---------------12-11--------------------|
|----------------------------------------|
|----------------------------------------|
|----------------------------------------|


   ~~~~                       ~~~~
   H..                S  S    H..                S  S
|-15--------------------12-|-14-----------------------|
|--------------------15----|--------------------12-14-|
|--------------------------|--------------------------|
|--------------------------|--------------------------|
|--------------------------|--------------------------|
|--------------------------|--------------------------|
|
|             ~~~                        ~~~
|  E    S  S  H.              E    S  S  H.
|------15-17-19------------|--------------------------|
|--------------------------|------12-14-15------------|
|--------------------------|--------------------------|
|--x-----------------------|--------------------------|
|--------------------------|--------------------------|
|--------------------------|--x-----------------------|


    ~~~~~                      ~~~
    H..                S  S    H.       Q
|---------------------------|--------------||
|--15-----------------14-12-|-12-------12--||
|---------------------------|--------------||
|---------------------------|--------------||
|---------------------------|--------------||
|---------------------------|--------------||
|
|              ~~~~~~~~~~~~~~~~~~~
|  +E    S  S  H.              W
|----------14-13------------|-10-----------||
|-(15)--15------------------|--------------||
|---------------------------|--------------||
|---------------------------|--------------||
|---------------------------|--------------||
|---------------------------|--------------||


           |-3--|                           |-3--|
   E E E E S  S S S S Q         E  E  E  E  S  S S S  S  Q
|--------7-9h10p9-7-6-7------|-----------7--9h10p9-7--6--7---------|
|------7---------------------|--------7----------------------------|
|----7-----------------------|-----7-------------------------------|
|--9-------------------------|--9----------------------------------|
|----------------------------|-------------------------------------|
|----------------------------|-------------------------------------|
|
|  E E Q   Q          E  S S    E  S  S  E  S  S E S  S  S  S S  S
|-----------------------10-9-|-------------------------------------|
|-12-------------------------|-12-12-11----------------------------|
|----------------------------|----------12-12-11-9-9----------9----|
|----------------------------|-----------------------12-11-12---11-|
|----------------------------|-------------------------------------|
|----------------------------|-------------------------------------|


              |--3--|
   E  E  E E  S  S  S S  S Q
|----------9-10h12p10-9----9-------|
|-----------------------12---------|
|-----9-12-------------------------|
|-11-------------------------------|
|----------------------------------|
|----------------------------------|
|
|  ~~~
|  H.                      E  S  S
|----------------------------12-10-|
|----------------------------------|
|----------------------------------|
|--8-------------------------------|
|----------------------------------|
|----------------------------------|


                    |--3--|
   E E     E  E     S  S  S S  S Q     E  E  E  E  S  S  S S  Q
|-------------9----10h12p10-9----9--|----------10-14-12-10-9-10---|
|-----------------------------12----|-------12--------------------|
|----9----12------------------------|----11-----------------------|
|-11--------------------------------|-12--------------------------|
|-----------------------------------|-----------------------------|
|-----------------------------------|-----------------------------|
|
|                   ~~~
|  E S  S  E  S  S  H                  E  E  E  E  S  S  S S  Q
|--9-9------------------------------|----------10-14-12-10-9-10---|
|------12-11-11---------------------|-------12--------------------|
|---------------12-11---------------|----11-----------------------|
|-----------------------------------|-12--------------------------|
|-----------------------------------|-----------------------------|
|-----------------------------------|-----------------------------|


   S  S  S  S  Q   S  S  S  S  Q
|-10--9-----------10--9-----------|
|-------12-11-12--------12-11-12--|
|---------------------------------|
|---------------------------------|
|---------------------------------|
|---------------------------------|
|
|  S  S  S  S  Q   S  S  S  S  Q
|-14-12-10----10--14-12-10----10--|
|----------14--------------14-----|
|---------------------------------|
|---------------------------------|
|---------------------------------|
|---------------------------------|


   S  S  S  S  S  S  S  S  S  S  S S  S  S S  S   Q   Q   Q  Q
|--9--------------------------------------------|---------------||
|----12-11--------------------------------------|---------------||
|----------12-11--9-----------------------------|---------------||
|-------------------12-11--9--8-----------------|---------------||
|-------------------------------10-9--7---------|---------------||
|---------------------------------------10-9--7-|-6---7---1--2--||
|
|  S  S  S  S  S  S  S  S  S  S  S S  S  S S  S   Q   Q   Q  Q
|-12-10--9--------------------------------------|---------------||
|----------12-11--------------------------------|---------------||
|----------------12-11--9-----------------------|---------------||
|-------------------------12-11--9-8------------|------------8--||
|------------------------------------10--9-7----|--------11-----||
|--------------------------------------------10-|-9--10---------||


  Gtr I
  W          W               W
|----------|-0------------|--5--------|
|-3--------|-0------------|--5--------|
|-0--------|-1------------|--6--------|
|----------|--------------|-----------|
|----------|--------------|-----------|
|----------|--------------|-----------|
|
| Gtrs II, III
| ~~~~~~~~~~~~~              ~~~~~~~~~~
| W          H     Q.   E    W
|-7--------|-7----10----7-|--9--------|
|----------|--------------|-----------|
|----------|--------------|-----------|
|-9--------|-9----12----9-|-11--------|
|----------|--------------|-----------|
|----------|--------------|-----------|


   W                H               H
|--6-------------|------------------5----------------|
|--7-------------|--7---------------5----------------|
|--6-------------|--7---------------6----------------|
|----------------|--9--------------------------------|
|----------------|-----------------------------------|
|----------------|-----------------------------------|
|
|~~~~
|  H     Q.    E    Q   S  S  S  S  Q   S  S  S  S
|--9----12-----9-|-10--10-12-14-10-12--12-14-15-12---|
|----------------|-----------------------------------|
|----------------|-----------11-----------11-12------|
|-11----14----11-|-12--12-14----12-14--14-------14---|
|----------------|-----------------------------------|
|----------------|-----------------------------------|


                1.
   H     H       H      H         E S S E S S S S S S S S S S
|--5-----5----|--3------4-----||--------------------------------|
|--7-----4----|--5------6-----||--------------------------------|
|--7-----5----|--4------6-----||--------------------------------|
|--------4----|---------------||------------------------2-4-5---|
|-------------|---------------||------------------2-4-5---------|
|-------------|---------------||--2-2-2-2-0-2-3-6---------------|
|
|  ~~~~~~~~~~~~~~~~~~~~~~~~
|  H     H       H      H         W
|-14----20----|-19-----16-----||-16-----------------------------|
|-------13----|-12----(12)----||-17-----------------------------|
|-11----------|---------------||--------------------------------|
|-------------|---------------||--------------------------------|
|-------------|---------------||--------------------------------|
|-------------|---------------||--------------------------------|


    E  S S E S S S S S S S S S S   E S S E S S S S S S S S S S
|--------------------------------|-----------------------------|
|--------------------------------|-----------------------------|
|--------------------------------|-----------------------------|
|--------------------------2-4-5-|-----------------------2-4-5-|
|--------------------2-4-5-------|-----------------2-4-5-------|
|---2--2-2-2-0-2-3-6-------------|-2-2-2-2-0-2-3-6-------------|
|
|   ~~~~
|  +H            H                   W
|-(16)---------------------------|-----------------------------|
|-(17)---------------------------|-----------------------------|
|--------------------------------|-----------------------------|
|--------------------------------|-----------------------------|
|--------------------------------|-----------------------------|
|--------------------------------|-----------------------------|


  S S S S S S S S S S S S S S S S
|-3-2-----------------------------|
|-----5-3-2-----------------------|
|-----------4-3-------------------|
|---------------5-4-2-------------|
|---------------------5-4-2-1-----|
|-----------------------------3-2-|
|
|   W
|---------------------------------|
|---------------------------------|
|---------------------------------|
|---------------------------------|
|---------------------------------|
|---------------------------------|


  Gtr I
  E S S E S S S S S S S S S S   E S S E S S S S S S S S S S
|-----------------------------|-----------------------------|
|-----------------------------|-----------------------------|
|-----------------------------|-----------------------------|
|-----------------------2-4-5-|-----------------------2-4-5-|
|-----------------2-4-5-------|-----------------2-4-5-------|
|-2-2-2-2-0-2-3-6-------------|-2-2-2-2-0-2-3-6-------------|


  E S S E S S S S S S S S S S
|-------------------------------|
|-------------------------------|
|-------------------------------|
|-----------------------2-4-5---|
|-----------------2-4-5---------|
|-2-2-2-2-0-2-3-6---------------|


                                  2.
                  |-3-| |-3-|
  S S S S S S S S E E E E E E      H     H
|-3-2--------------------------||--3-----4----------||
|-----5-3-2-------------------o||--5-----6----------||
|-----------4-3----------------||--4-----6----------||
|---------------5-4-2----------||-------------------||
|---------------------5-4-2-1-o||-------------------||
|------------------------------||-------------------||
|
| Gtr II
|                                  ~~
|           W                      H     Q  E  S  S
|------------------------------||-19----16----18-19-||
|-----------------------------o||-12----------------||
|------------------------------||-------------------||
|------------------------------||-------------------||
|-----------------------------o||-------------------||
|------------------------------||-------------------||


   E  S S E S S S S S S  S  S  S S
|------------------------------------|
|------------------------------------|
|------------------------------------|
|---------------------------2--4-5---|
|-------------------2-4--5-----------|
|--2--2-2-2-0-2-3-6------------------|
|
|  H.                    S  E.
|-18--------------------15p14--------|
|------------------------------------|
|------------------------------------|
|------------------------------------|
|------------------------------------|
|------------------------------------|


    E   S S E S S S S S S S S  S S
|-------------------------------------|
|-------------------------------------|
|-------------------------------------|
|---------------------------2--4-5----|
|---------------------2-4-5-----------|
|---2---2-2-2-0-2-3-6-----------------|
|
|   ~~~~~
|  +H..                        S    S
|-(14)------------------------18---19-|
|-------------------------------------|
|-------------------------------------|
|-------------------------------------|
|-------------------------------------|
|-------------------------------------|


   E  S S  E     S  S  S  S  S  S  S    S       S       S
|-------------------------------------------------------------|
|-------------------------------------------------------------|
|-------------------------------------------------------------|
|---------------------------------------2-------4-------5-----|
|----------------------------2--4--5--------------------------|
|--2--2-2--2-----0--2--3--6-----------------------------------|
|
|                                  |-----------7-----------|
|  E  E    S  S  S  S  S  S  S  S  S  S    S  S    S  S    S
|-18-15---18-19-15-18-19-18-15-21-15-18---19-18---15-21---15--|
|-------------------------------------------------------------|
|-------------------------------------------------------------|
|-------------------------------------------------------------|
|-------------------------------------------------------------|
|-------------------------------------------------------------|


   E        S    S     E        S    S     S    S     S    S     S    S     S    S
|-------------------------------------------------------------------------------------|
|-------------------------------------------------------------------------------------|
|-------------------------------------------------------------------------------------|
|---------------------------------------------------------------------2-----4----5----|
|-----------------------------------------------------2----4-----5--------------------|
|--2--------2----2-----2--------0----2-----3----6-------------------------------------|
|
|  |-------6--------|  |-------6--------|  |--------6---------|  |--------6---------|
|  S  S  S  S  S    S  S  S  S  S  S    S  S  S    S  S  S    S  S  S    S  S  S    S
|-18-19-18-15-18---15-18-19-18-15-21---15-18-19---18-15-21---15-18-21---18-15-21---18-|
|-------------------------------------------------------------------------------------|
|-------------------------------------------------------------------------------------|
|-------------------------------------------------------------------------------------|
|-------------------------------------------------------------------------------------|
|-------------------------------------------------------------------------------------|


   E       S    S     E       S    S     S S   S    S     S    S     S    S
|-------------------------------------------------------------------------------|
|-------------------------------------------------------------------------------|
|-------------------------------------------------------------------------------|
|--------------------------------------------------------------2-----4----5-----|
|----------------------------------------------2----4-----5---------------------|
|--2-------2----2-----2-------0----2-----3-6------------------------------------|
|
|  |-------5-------|  |-------5-------|  |------3------|  |--------6---------|
|  S  S  S    S    S  S  S  S    S    S  E   E    S    S  S  S    S  S  S    S
|-15-15-16---15------15----15----------------x--------------12---14h15p14---12--|
|-----------------17----17------17---15-14-------12---14-15---------------------|
|-------------------------------------------------------------------------------|
|-------------------------------------------------------------------------------|
|-------------------------------------------------------------------------------|
|-------------------------------------------------------------------------------|


   E          S       S     E        S    S     S    S     S    S     S    S     S    S
|-------------------------------------------------------------------------------------------|
|-------------------------------------------------------------------------------------------|
|-------------------------------------------------------------------------------------------|
|--------------------------------------------------------------------------2-----4----5-----|
|----------------------------------------------------------2----4-----5---------------------|
|--2----------2-------2-----2--------0----2-----3----6--------------------------------------|
|
|  |----------7----------|  |-------6--------|  |--------6---------|  |--------6---------|
|  S  S  S  S    S  S    S  S  S  S  S  S    S  S  S    S  S  S    S  S  S    S  S  S    S
|-----------------------12-14-15-14-12-14---12---------12-12--------------------15-14---12--|
|-15-14-12-11---14-15--------------------------15-15---------15---12----12---15-------------|
|--------------------------------------------------------------------15---------------------|
|-------------------------------------------------------------------------------------------|
|-------------------------------------------------------------------------------------------|
|-------------------------------------------------------------------------------------------|


   E        S    S     E          S       S     S    S       S       S     S S     S    S
|---------------------------------------------------------------------------------------------|
|---------------------------------------------------------------------------------------------|
|---------------------------------------------------------------------------------------------|
|----------------------------------------------------------------------------2-----4----5-----|
|------------------------------------------------------------2-------4-----5------------------|
|--2--------2----2-----2----------0-------2-----3----6----------------------------------------|
|
|  |-------6--------|  |----------7----------|  |-----------7-----------|  |-------6-------|
|  S  S  S  S  S    S  S  S  S  S    S  S    S  S  S    S  S    S  S    S  E    S  S  S    S
|-15-14-12----14------------12----------------------------------------------------------------|
|----------15------12-15-14----15---14-12---15-14-12---11-14---12-11---12-12---11-------------|
|---------------------------------------------------------------------------------12-11-------|
|-----------------------------------------------------------------------------------------14--|
|---------------------------------------------------------------------------------------------|
|---------------------------------------------------------------------------------------------|


   E        S    S     E        S    S     S    S     S    S     S    S     S    S
|-------------------------------------------------------------------------------------|
|-------------------------------------------------------------------------------------|
|-------------------------------------------------------------------------------------|
|---------------------------------------------------------------------2-----4----5----|
|-----------------------------------------------------2----4-----5--------------------|
|--2--------2----2-----2--------0----2-----3----6-------------------------------------|
|
|  |-------6--------|  |-------6--------|  |--------6---------|  |--------6---------|
|  S  S  S  S  S    S  S  S  S  S  S    S  S  S    S  S  S    S  S  S    S  S  S    S
|-----------------------------------------12---------12-14---12------------14-15---14-|
|-------11-12-14---11-12-14-15-12-14---15----14---15------------15-14---12------------|
|-11-12-------------------------------------------------------------------------------|
|-------------------------------------------------------------------------------------|
|-------------------------------------------------------------------------------------|
|-------------------------------------------------------------------------------------|


   E        S    S     E        S    S     S    S     S S   S  S S S
|--------------------------------------------------------------------|
|--------------------------------------------------------------------|
|--------------------------------------------------------------------|
|--------------------------------------------------------------2-4-5-|
|-----------------------------------------------------2-4---5--------|
|--2--------2----2-----2--------0----2-----3----6--------------------|
|
|  |-------6--------|  |-------6--------|  |---3---|
|  S  S  S  S  S    S  S  S  S  S  S    S  S  S    S  E    +Q
|-12-----------------------------------------------------------------|
|----15-14-12-11---------14-12-11------------------------------------|
|------------------14-11----------12---11----------------------------|
|-----------------------------------------14-12---11-----------------|
|----------------------------------------------------14---(14)-------|
|--------------------------------------------------------------------|


    E   S  S E S S  S S  S S  S  S S  S
|-----------------------------------------|
|-----------------------------------------|
|-----------------------------------------|
|--------------------------------2-4--5---|
|------------------------2-4--5-----------|
|---2---2--2-2-0-2--3-6-------------------|
|
|  +E   Q.          E    E    E.      S
|------------------------------------14---|
|------15----------15---15---14-----------|
|-----------------------------------------|
|-----------------------------------------|
|-(14)------------------------------------|
|-----------------------------------------|


   E       S    S     E     S  S  S  S  S  S  S  S  S  S
|--------------------------------------------------------|
|--------------------------------------------------------|
|--------------------------------------------------------|
|------------------------------------------------2--4--5-|
|---------------------------------------2--4--5----------|
|--2-------2----2-----2-----0--2--3--6-------------------|
|
|  |-------5-------|
|  S  S  S    S    S  S  S  S  S  S  S  S  S  S  S  S  S
|-15-14-15---12---15----15----15----15-14-15-12-15----15-|
|--------------------15----14----12----------------15----|
|--------------------------------------------------------|
|--------------------------------------------------------|
|--------------------------------------------------------|
|--------------------------------------------------------|


   E     S  S  E     S  S  S  S  S  S  S  S  S  S
|-------------------------------------------------|
|-------------------------------------------------|
|-------------------------------------------------|
|-----------------------------------------2--4--5-|
|--------------------------------2--4--5----------|
|--2-----2--2--2-----0--2--3--6-------------------|
|
|  S  S  S  S  S  S  S  S  S  S  S  S  S  S  S  S
|----15----15----15-14-15-12-15----15----15----15-|
|-14----12----12----------------15----14----12----|
|-------------------------------------------------|
|-------------------------------------------------|
|-------------------------------------------------|
|-------------------------------------------------|


   E S S E S S  S    S       S       S     S    S     S S
|---------------------------------------------------------|
|---------------------------------------------------------|
|---------------------------------------------------------|
|-----------------------------------------------2-----4-5-|
|----------------------------2-------4-----5--------------|
|--2-2-2-2-0-2--3----6------------------------------------|
|
|  ~~
|               |-----------7-----------|  |---3---|
|  H            S  S    S  S    S  S    S  S  S    S  E
|-------------------------14---15-14---12------------21---|
|-12-----------12-14---15-----------------15-14---12------|
|---------------------------------------------------------|
|---------------------------------------------------------|
|---------------------------------------------------------|
|---------------------------------------------------------|


    E  S S  E        S    S     S S    S    S  S S    S    S
|-------------------------------------------------------------|
|-------------------------------------------------------------|
|-------------------------------------------------------------|
|------------------------------------------------2----4----5--|
|--------------------------------------2----4--5--------------|
|---2--2-2--2--------0----2-----3-6---------------------------|
|
|           |-------6--------|  |----3----|    |----3----|
|  +Q       S  S  S  S  S    S  E    E    E    E    E    E
|-(21)-----15-14-12------------15S==21---21S==15---15S==21----|
|-------------------15-14---12--------------------------------|
|-------------------------------------------------------------|
|-------------------------------------------------------------|
|-------------------------------------------------------------|
|-------------------------------------------------------------|


   E    S    S  E  S S  S S S    S  S S    S    S
|-------------------------------------------------|
|-------------------------------------------------|
|-------------------------------------------------|
|-------------------------------------2----4----5-|
|---------------------------2----4--5-------------|
|--2----2----2--2--0-2--3-6-----------------------|
|
|  |---3---|            |--3---|    |----3----|
|  E  E    E    E  E    Q      E    E    E    E
|-21S15---15S==14-14---14-----12---14---15---19---|
|-------------------------------------------------|
|-------------------------------------------------|
|-------------------------------------------------|
|-------------------------------------------------|
|-------------------------------------------------|


   E       S    S     E        S    S     S    S    S    S     S    S     S    S
|-----------------------------------------------------------------------------------||
|-----------------------------------------------------------------------------------||
|-----------------------------------------------------------------------------------||
|-------------------------------------------------------------------2-----4----5----||
|---------------------------------------------------2----4-----5--------------------||
|--2-------2----2-----2--------0----2-----3----6------------------------------------||
|
|  |-------5-------|  |-------6--------|  |--------5--------|  |--------6---------|
|  S  S  S    S    S  S  S  S  S  S    S  S  S    S    S    S  S  S    S  S  S    S
|-18-19-18---15------15-17-14-15-14---17-18-19---18---15------15-17---14-15-14---17-||
|-----------------17---------------------------------------17-----------------------||
|-----------------------------------------------------------------------------------||
|-----------------------------------------------------------------------------------||
|-----------------------------------------------------------------------------------||
|-----------------------------------------------------------------------------------||


                                 ~~~
            |-3--|
   E  E E E S  S S S S Q        +W
|---------7-9h10p9-7-6-7------|-(7)----------------------------------|
|-------7---------------------|--------------------------------------|
|-----7-----------------------|--------------------------------------|
|--9--------------------------|--------------------------------------|
|-----------------------------|--------------------------------------|
|-----------------------------|--------------------------------------|
|
|  H.                  E  S S    E   S  S  E  S  S E S  S  S  S S  S
|-17\--------------------10-9-|--------------------------------------|
|-----------------------------|-12--12-11----------------------------|
|-----------------------------|-----------12-12-11-9-9----------9----|
|-----------------------------|------------------------12-11-12---11-|
|-----------------------------|--------------------------------------|
|-----------------------------|--------------------------------------|


              |--3--|
   E  E  E E  S  S  S S  S Q
|----------9-10h12p10-9----9---------|
|-----------------------12-----------|
|-----9-12---------------------------|
|-11---------------------------------|
|------------------------------------|
|------------------------------------|
|
|  ~~~
|  H.                      E  S  S
|----------------------------12-10---|
|------------------------------------|
|------------------------------------|
|--8---------------------------------|
|------------------------------------|
|------------------------------------|


   ~~~~                            ~~~~
  +H..                     S  S    H..                S  S
|-(9)---------------------12-14-|-15--------------------12-|
|-------------------------------|--------------------15----|
|-------------------------------|--------------------------|
|-------------------------------|--------------------------|
|-------------------------------|--------------------------|
|-------------------------------|--------------------------|
|
|                     ~~                      ~~~
|  E   S  S  E  S  S  H            E    S  S  H.
|--9---9------------------------|------15-17-19------------|
|--------12-11-11---------------|--------------------------|
|-----------------12-11---------|--------------------------|
|-------------------------------|--x-----------------------|
|-------------------------------|--------------------------|
|-------------------------------|--------------------------|


   ~~~~                       ~~
   H..                S  S    W
|-14-----------------------|-----------------|
|--------------------12-14-|-15--------------|
|--------------------------|-----------------|
|--------------------------|-----------------|
|--------------------------|-----------------|
|--------------------------|-----------------|
|
|             ~~~                      ~~~
|  E    S  S  H.              E  S  S  H.
|--------------------------|-------14-13-----|
|------12-14-15------------|-15-15-----------|
|--------------------------|-----------------|
|--------------------------|-----------------|
|--------------------------|-----------------|
|--x-----------------------|-----------------|


    |-3-| |-----6-----| |-----6-----|  |------6------|
  E S S S S  S S  S S S S  S S S  S S  S  S S  S  S  S
|------------------------------------------------------|
|---------------------------------------------------10-|
|-------------------------------------------9-11-12----|
|----------------------------8-9-11-9-11-12------------|
|--------------7-10-9-7-9-10---------------------------|
|-7-9-7-9-7-10-----------------------------------------|


   |------6-------|  |------6-------|  |------6-------|  |--------7--------|
   S  S  S  S  S  S  S  S  S  S  S  S  S  S  S  S  S  S  S  S  S  S  S  S  S    E  H..
|-------------------------------12-14-15-14-12----------14-15-12----------14-|-19--------*|
|-------------------------11-12----------------15-14-12----------15-12-15----|-----------*|
|----------11-------11-12----------------------------------------------------|-----------*|
|-11-12-14----12-14----------------------------------------------------------|-----------*|
|----------------------------------------------------------------------------|-----------*|
|----------------------------------------------------------------------------|-----------*|



Duration Legend
---------------
W - whole; H - half; Q - quarter; E - 8th; S - 16th; T - 32nd; X - 64th; a - acciaccatura
+ - note tied to previous; . - note dotted; .. - note double dotted
Uncapitalized letters represent notes that are staccato (1/2 duration)
Irregular groupings are notated above the duration line
Duration letters will always appear directly above the note/fret number it represents the
duration for.  Duration letters with no fret number below them represent rests.  Multi-
bar rests are notated in the form Wxn, where n is the number of bars to rest for.  Low
melody durations appear below the staff

Tablature Legend
----------------
 h   - hammer-on
 p   - pull-off
 b   - bend
 pb  - pre-bend
 r   - bend release (if no number after the r, then release immediately)
 /\  - slide into or out of (from/to "nowhere")
 s   - legato slide
 S   - shift slide
 - natural harmonic
[n]  - artificial harmonic
n(n) - tapped harmonic
 ~   - vibrato
 tr  - trill
 T   - tap
 TP  - trem. picking
 PM  - palm muting
\n/  - tremolo bar dip; n = amount to dip
 \n  - tremolo bar down
 n/  - tremolo bar up
/n\  - tremolo bar inverted dip
 =   - hold bend; also acts as connecting device for hammers/pulls
 <> - volume swell (louder/softer)
 x   - on rhythm slash represents muted slash
 o   - on rhythm slash represents single note slash

Misc Legend
-----------
 |  - bar
||  - double bar
||o - repeat start
o|| - repeat end
*|  - double bar (ending)
 :  - bar (freetime)
 $  - Segno
 &  - Coda
Tempo markers -  = BPM(8/16=s8/s16), where s8 = swing 8ths, s16 = swing 16ths

Tap to rate this tab
# A B C D E F G H I J K L M N O P Q R S T U V W X Y Z