Song name
# A B C D E F G H I J K L M N O P Q R S T U V W X Y Z

Yngwie Malmsteen - Liberator tab

Tabbed by: Fawwaz A.Rashid aka Wawa
Email: fawwaz_4_life@yahoo.com


Intro:
||-9--------------------||
||--12-10-9-10-9--------||
||--------------11-10-11||
||----------------------||
||----------------------||
||----------------------||

Verse 2x:
||-9------9-12-10-9-10-9--------------------------9-----------------------9
||--10--10--------------12-11-12-10-9-10-12-9-9-12-10-9-10-9--9-10------10-
||----11-------------------------------------9--------------11----11--11---
||------------------------------------------------------------------12-----
||-------------------------------------------------------------------------
||-------------------------------------------------------------------------

||----------------------------------------------------||
||-12-10-12-9--9--------9------9-12-10-9-10-9---------||
||-----------11-11-10-11-10--10--------------11-10-11-||
||-------------------------11-------------------------||
||----------------------------------------------------||
||----------------------------------------------------||

Rythem:
||----------------------------------------------------------------------||
||----------------------------------------------------------------------||  
||----------------------------------------------------------------------||
||-9---9--9-99-99---------7-77-77---------5-55-55---------4-44-44-9---9-||
||-9-9-9--9-99-99-7-77-77-7-77-77-5-55-55-5-55-55-4-44-44-4-44-44-9-9-9-||
||-7-9-7--7-77-77-7-77-77-5-55-55-5-55-55-3-33-33-4-44-44-2-22-22-7-9-7-||
||---7------------5-55-55---------3-33-33---------2-22-22-----------7---||

Outro:
Same as intro...HaHax!!

This song has to be played fast. 
The faster the better...
The fastest the...GREATEST
Tap to rate this tab
# A B C D E F G H I J K L M N O P Q R S T U V W X Y Z