Guitaretab - guitar tabs
Song name
# A B C D E F G H I J K L M N O P Q R S T U V W X Y Z

Yngwie Malmsteen - Dreaming Tell Me tab

#----------------------------------PLEASE NOTE---------------------------------#
#This file is the author's own work and represents their interpretation of the #
#song. You may only use this file for private study, scholarship, or research. #
#------------------------------------------------------------------------------#

DREAMING (TELL ME)
As recorded by Yngwie J. Malmsteen
(From the 1988 Album ODYSSEY)

Transcribed by Twelfth-Elf
	

Words and Music by Yngwie J. Malmsteen & Joe Lynn Turner

Gtr I (D# G# C# F# A# D#) - 'Nylon Acoustic'
Gtr II (D# G# C# F# A# D#) - 'Keyboard'
Gtr III (D# G# C# F# A# D#) - 'Nylon Lead'
Gtr IV (D# G# C# F# A# D#) - 'Distortion Solo'
Gtr V (D# G# C# F# A# D#) - 'Distortion Rhythm'

 Intro (Nylon Acoustic)
  Q=89                        Q=78 Q=55   Q=68
 4/4
  Gtr I
                                       ~~
                                          |-3--|
  H      E    E  E  E    E  E  E E  E  Q  T  T T  T T
|---------------------:----10-12-8-10-----------------|
|---------------------:-10------------10--8-10-8----8-|
|----------------9-10-:--------------------------10---|
|-----------<12>------:-------------------------------|
|------<12>-----------:-------------------------------|
|---------------------:-------------------------------|


  Q=115
       |---3---|
  +E   S..  S  S S.  S  S  S  S  S  S  S  S S  S
|----------------------------10-13p10------------|
|-(8)---------------------10----------10---------|
|-----10h==12p10-9-----10----------------10p9----|
|-------------------12------------------------12-|
|------------------------------------------------|
|------------------------------------------------|


  Dm                 E7
  E E E E  H          +S  S S S S S  e  E   E  E  S S
|------------------|----------------------------------|
|------------------|----------------------------------|
|------------------|------------7-9-10-10s=12-12-10-9-|
|-7----------------|----------7-----------------------|
|---8-7-8----------|------7h8-------------------------|
|---------10-------|-(10)-----------------------------|
|
| Gtr II
| E E E E  E E E E     E    E   E    E +H
|-------0--1-0-----|-----------------0-(0)------------|
|-----3--------3---|------------3---------------------|
|---2------------2-|--------3-------------------------|
|-0----------------|---0------------------------------|
|------------------|----------------------------------|
|------------------|----------------------------------|


  Dm
   T  T  T T  H        T  T  T  T  Q
|--------------------------------------|
|---------------------10h11p10---------|
|-10-12-10-9-------------------12-10---|
|------------12------------------------|
|--------------------------------------|
|--------------------------------------|
|
|  E          E E E E  E           E E
|-----------------0-1--0---------------|
|---------------3------------------3---|
|-------------2------------------------|
|--0-----------------------------------|
|------------------------------------3-|
|--------------------------------------|


  E7/Bb  Cadd9
  H       E  S  S  S  S  S  s
|--------------------------10-|
|-----------------10-11-13----|
|-----------10-12-------------|
|-----------------------------|
|-----------------------------|
|-----------------------------|
|
| E E E E E  E     E     E
|-----0------------0----------|
|-------3----------------3----|
|---0--------0----------------|
|-----------------------------|
|-1-------3-------------------|
|-----------------------------|


  Dm                                       E7
  S  a  E.    S  E.    +Q     S  S  S  S    E.    S  H        Q
|---10S12--------------------------------|-----------------------|
|------------13-10----(10)------10-10-11-|-13----11-10-----------|
|----------------------------12----------|-----------------------|
|----------------------------------------|-----------------------|
|----------------------------------------|-----------------------|
|----------------------------------------|-----------------------|
|
| E        E  E     E   E  E  E     E       E  E     E E +H
|-------------------0---1--0-------------|-------------0-(0)-----|
|-------------3---------------3----------|-----------3-----------|
|----------2------------------------2----|-----3-----------------|
|-0--------------------------------------|--0--------------------|
|----------------------------------------|-----------------------|
|----------------------------------------|-----------------------|


  Dm
            |-----6-----|   |-----6-----|
  Q   s S T S S S   S S S   S S S   S S S   T T T
|-----5-6---8-6-5-------5-------------------------|
|-------------------8-8-----8-6-5---8-6-5---5-----|
|---------------------------------------------6-7-|
|-------------------------------------------------|
|-------------------------------------------------|
|-------------------------------------------------|
|
| E E E   E       E       E       E       E
|---------0-------1-------0-----------------------|
|-----3---------------------------3---------------|
|---2---------------------------------------------|
|-0-----------------------------------------------|
|-----------------------------------------3-------|
|-------------------------------------------------|


  E7/Bb  Cadd9
          |-3-|
  T T T T S S S S  E   S e e e e
|-----------5-6-8S10-----8-6-5----|
|---5-5-6-8--------------------8--|
|-7-------------------------------|
|---------------------------------|
|---------------------------------|
|---------------------------------|
|
| E       E     E    E   E E E E
|---------------0------------0----|
|--------------------3---------3--|
|---------0----------------0------|
|---------------------------------|
|-1----------------------3--------|
|---------------------------------|


 Verse
  Dm                  E7                Dm                E7/Bb  Cadd9
  e Q   S S H         +W                 W                 W
|-------------------|------------------|-----------------|-----------------|
|-6-5---------------|------------------|-----------------|-----------------|
|-------7s9-9-------|-(9)--------------|-----------------|-----------------|
|-------------------|------------------|-----------------|-----------------|
|-------------------|------------------|-----------------|-----------------|
|-------------------|------------------|-----------------|-----------------|
|
| E E E E   E E E E    E  E E E +H       E E E E E E E E   E E E E E E E E
|-------0---1-0-----|---------0-(0)----|-------0-1-0-----|-----0-------0---|
|-----3---------3---|-------3----------|-----3-------3---|-------3-------3-|
|---2-------------2-|-----3------------|---2-------------|---0-------0-----|
|-0-----------------|--0---------------|-0---------------|-----------------|
|-------------------|------------------|---------------3-|-1-------3-------|
|-------------------|------------------|-----------------|-----------------|


  Dm                E7              Dm                E7/Bb  Cadd9
  Gtr II
  E E E E E E E E   E E E E +H       E E E E E E E E   E E E E E E E E
|-------0-1-0-----|-------0-(0)----|-------0-1-0-----|-----0-------0---|
|-----3-------3---|-----3----------|-----3-------3---|-------3-------3-|
|---2-----------2-|---3------------|---2-------------|---0-------0-----|
|-0---------------|-0--------------|-0---------------|-----------------|
|-----------------|----------------|---------------3-|-1-------3-------|
|-----------------|----------------|-----------------|-----------------|


    Dm                E7              Dm                E7/Bb  Cadd9
    Gtr I
    E E E E E E E E   E E E E +H       E E E E E E E E   E E E E E E E E
||--------0-1-0-----|-------0-(0)----|-------0-1-0-----|-----0-------0-----||
||o-----3-------3---|-----3----------|-----3-------3---|-------3-------3--o||
||----2-----------2-|---3------------|---2-------------|---0-------0-------||
||--0---------------|-0--------------|-0---------------|-------------------||
||o-----------------|----------------|---------------3-|-1-------3--------o||
||------------------|----------------|-----------------|-------------------||
|
|   Gtr II
|   E E E E E E E E   E E E E +H       E E E E E E E E   E E E E E E E E
||--------0-1-0-----|-------0-(0)----|-------0-1-0-----|-----0-------0-----||
||o-----3-------3---|-----3----------|-----3-------3---|-------3-------3--o||
||----2-----------2-|---3------------|---2-------------|---0-------0-------||
||--0---------------|-0--------------|-0---------------|-------------------||
||o-----------------|----------------|---------------3-|-1-------3--------o||
||------------------|----------------|-----------------|-------------------||


   Asus4    A             A/C#
    E E E E  E   E  E E   E E E E E E E E
||----------------------|-------6-5-3-----|
||--------3--2----------|-------------6-5-|
||------2--------2------|-----2-----------|
||----2-----------------|---2-------------|
||--0---------------0-2-|-4---------------|
||----------------------|-----------------|
|
|   H       +E   E  E E   E E E E E E E E
||-^5-------(5)--5------|-----5-6-5-3-----|
||-^5-------(5)-(5)-----|---5---------6-5-|
||-^2-------(2)-(2)-2-4-|-6---------------|
||----------------------|-----------------|
||----------------------|-----------------|
||----------------------|-----------------|


   E   E    E    E   E   E    E    E     E   E    E    E   E   E    E    E
|-------------------------------------|--------------------------------------|
|------3----2----3-------3----2----3--|------3----2----3-------3----2----3---|
|-------------------------------------|--------------------0--(0)--(0)--(0)--|
|--0--(0)--(0)--(0)--2--(2)--(2)--(2)-|--3--(3)--(3)--(3)--------------------|
|-------------------------------------|--------------------------------------|
|-------------------------------------|--------------------------------------|
|
|  E   E    E    E   E   E    E    E     E   E    E    E   E   E    E    E
|-----22---21---22------22---21---22--|-----22---21---22------22---21---22---|
|-------------------------------------|-18-(18)-(18)-(18)-20-(20)-(20)-(20)--|
|-19-(19)-(19)-(19)-21-(21)-(21)-(21)-|--------------------------------------|
|-------------------------------------|--------------------------------------|
|-------------------------------------|--------------------------------------|
|-------------------------------------|--------------------------------------|


  Asus4       A           A/C#
   E  E  E  E  E  E E E   E E E E E E E E   E E E E E E E E   E E E E E E E E
|-----------------------|-------6-5-3-----|-----------5-9---|-----------------||
|-----------3--2--------|-------------6-5-|-3-6-5-3-------8-|---3-2-----------||
|--------2--------2-----|-----2-----------|---------6-------|-------3-2-0-----||
|-----2-----------------|---2-------------|-----------------|-0-----------3-2-||
|--0----------------0-2-|-4---------------|-----------------|-----------------||
|-----------------------|-----------------|-----------------|-----------------||
|
|  E  E  E  E  E  E E E   E E E E E E E E   E E E E E E E E   E E E E E E E E
|-22-21-18-17-----------|-----5-6-5-3-----|-----------5-9---|-----------------||
|-------------20-18-----|---5---------6-5-|-3-6-5-3-------8-|---3-2-----------||
|-------------------2-4-|-6---------------|---------6-------|-------3-2-0-----||
|-----------------------|-----------------|-----------------|-0-----------3-2-||
|-----------------------|-----------------|-----------------|-----------------||
|-----------------------|-----------------|-----------------|-----------------||


  Chorus
   Gm                Gm/F              Em7b5             Asus4   A
   Gtr I
   E E E E E E E E   E E E E E E E E   E E E E E E E E   E E E E E E Q
||-------3---------|-------3---------|-------3---------|-----------------|
||-----3-----3-----|-----3-----3-----|-----3-----3-----|-------3-2-------|
||---3-----3---3---|---3-----3---3---|---3-----3---3---|-----2-----2-----|
||-5-------------5-|-3-------------3-|-2-------------2-|---2-------------|
||-----------------|-----------------|-----------------|-0-----------0---|
||-----------------|-----------------|-----------------|-----------------|


  Gm                Gm/F              Em7b5             Asus4       A
  E E E E E E E E   E E E E E E E E   E E E E E E E E    W           W
|-------3---------|-------3---------|-------3---------|-----------|-------||
|-----3-----3-----|-----3-----3-----|-----3-----3-----|-^3--------|-^2----||
|---3-----3---3---|---3-----3---3---|---3-----3---3---|-^2--------|-^2----||
|-5-------------5-|-3-------------3-|-2-------------2-|-^2--------|-^2----||
|-----------------|-----------------|-----------------|-^0--------|-^0----||
|-----------------|-----------------|-----------------|-----------|-------||


   Verse
    Dm                E7              Dm                E7/Bb  Cadd9
    E E E E E E E E   E E E E +H       E E E E E E E E   E E E E E E E E
||--------0-1-0-----|-------0-(0)----|-------0-1-0-----|-----0-------0-----||
||o-----3-------3---|-----3----------|-----3-------3---|-------3-------3--o||
||----2-----------2-|---3------------|---2-------------|---0-------0-------||
||--0---------------|-0--------------|-0---------------|-------------------||
||o-----------------|----------------|---------------3-|-1-------3--------o||
||------------------|----------------|-----------------|-------------------||
|
|   Gtr II
|   E E E E E E E E   E E E E +H       E E E E E E E E   E E E E E E E E
||--------0-1-0-----|-------0-(0)----|-------0-1-0-----|-----0-------0-----||
||o-----3-------3---|-----3----------|-----3-------3---|-------3-------3--o||
||----2-----------2-|---3------------|---2-------------|---0-------0-------||
||--0---------------|-0--------------|-0---------------|-------------------||
||o-----------------|----------------|---------------3-|-1-------3--------o||
||------------------|----------------|-----------------|-------------------||


   Asus4   A             A/C#
   E E E E  E   E  E E   E E E E E E E E
||---------------------|-------6-5-3-----|
||-------3--2----------|-------------6-5-|
||-----2--------2------|-----2-----------|
||---2-----------------|---2-------------|
||-0---------------0-2-|-4---------------|
||---------------------|-----------------|
|
|  H       +E   E  E E   E E E E E E E E
||-5-------(5)--5------|-----5-6-5-3-----|
||-5-------(5)-(5)-----|---5---------6-5-|
||-2-------(2)-(2)-2-4-|-6---------------|
||---------------------|-----------------|
||---------------------|-----------------|
||---------------------|-----------------|


   E   E    E    E   E   E    E    E     E   E    E    E   E   E    E    E
|-------------------------------------|--------------------------------------|
|------3----2----3-------3----2----3--|------3----2----3-------3----2----3---|
|-------------------------------------|--------------------0--(0)--(0)--(0)--|
|--0--(0)--(0)--(0)--2--(2)--(2)--(2)-|--3--(3)--(3)--(3)--------------------|
|-------------------------------------|--------------------------------------|
|-------------------------------------|--------------------------------------|
|
|  E   E    E    E   E   E    E    E     E   E    E    E   E   E    E    E
|-----22---21---22------22---21---22--|-----22---21---22------22---21---22---|
|-------------------------------------|-18-(18)-(18)-(18)-20-(20)-(20)-(20)--|
|-19-(19)-(19)-(19)-21-(21)-(21)-(21)-|--------------------------------------|
|-------------------------------------|--------------------------------------|
|-------------------------------------|--------------------------------------|
|-------------------------------------|--------------------------------------|


  Asus4       A           A/C#
   E  E  E  E  E  E E E   E E E E E E E E   E E E E E E E E   E E E E E E E E
|-----------------------|-------6-5-3-----|---5-------6-5-3-|-1-3-0-1---3-1-0-||
|-----------3--2--------|-------------6-5-|-3---5-3---------|-3---2---3-2-----||
|--2-----2--------2-----|-----2-----------|---------6-------|-------3-----3-2-||
|-----2-----------------|---2-------------|-----------------|-----------------||
|-------------------0-2-|-4---------------|-----------------|-----------------||
|-----------------------|-----------------|-----------------|-----------------||
|
|  E  E  E  E  E  E E E   E E E E E E E E   E E E E E E E E   E E E E E E E E
|-22-21-18-17-----------|-----5-6-5-3-----|---5-------6-5-3-|-----------------||
|-------------20-18-----|---5---------6-5-|-3---5-3---------|---3-2-----------||
|-------------------2-4-|-6---------------|---------6-------|-------3-2-0-----||
|-----------------------|-----------------|-----------------|-0-----------3-2-||
|-----------------------|-----------------|-----------------|-----------------||
|-----------------------|-----------------|-----------------|-----------------||


  Chorus
   Gm                Gm/F              Em7b5             Asus4   A
   E E E E E E E E   E E E E E E E E   E E E E E E E E   E E E E E E Q
||-------3---------|-------3---------|-------3---------|-----------------|
||-----3-----3-----|-----3-----3-----|-----3-----3-----|-------3-2-------|
||---3-----3---3---|---3-----3---3---|---3-----3---3---|-----2-----2-----|
||-5-------------5-|-3-------------3-|-2-------------2-|---2-------------|
||-----------------|-----------------|-----------------|-0-----------0---|
||-----------------|-----------------|-----------------|-----------------|


  Gm                Gm/F
  E E E E E E E E   E E E E E E E E
|-------3---------|-------3---------|
|-----3-----3-----|-----3-----3-----|
|---3-----3---3---|---3-----3---3---|
|-5-------------5-|-3-------------3-|
|-----------------|-----------------|
|-----------------|-----------------|
|
| W                 W
|-----------------|-----------------|
|-----------------|-----------------|
|-----------------|-----------------|
|-----------------|-----------------|
|-----------------|-----------------|
|-----------------|-----------------|


  E7/Bb             Asus4       A
  E E E  Q  E. E.     W           W
|-------^3---------|-----------|-------------||
|-----3-^3--3------|-^3--------|-^2----------||
|---3---^3-----3---|-^2--------|-^2----------||
|-2-----^2---------|-^2--------|-^2----------||
|------------------|-^0--------|-------------||
|------------------|-----------|-------------||
|
|                                   Gtr III
| W                   W           H    Q  Q
|------------------|-----------|----------6--||
|------------------|-----------|-------------||
|------------------|-----------|-------------||
|------------------|-----------|-------------||
|------------------|-----------|-------------||
|------------------|-----------|-------------||


 Guitar Solo 1
  Dm                    E7
  Gtr III
                                           |---5----|
  H..             S S   E S S H        +E  T T  T T T
|-5-------------------|---------------------------6-8-|
|-----------------5-6-|-8-6-5--------------6-8-10-----|
|---------------------|-------7--------(7)------------|
|---------------------|-------------------------------|
|---------------------|-------------------------------|
|---------------------|-------------------------------|
|
| Gtr II
| E   E E E E E E E     E E   E E +H
|---------0-1-0-------|---------0-(0)-----------------|
|-------3-------3-----|-------3-----------------------|
|-----2-----------2---|---3---------------------------|
|-0-------------------|-0-----------------------------|
|---------------------|-------------------------------|
|---------------------|-------------------------------|


  Dm                                E7/Bb      Cadd9
                                            TP  TP  TP
   |--3--|  |--3--| |--3--| |3|
   E E   E  E E   E E E   E E Q     +E.   S Q   Q   Q
|-10-8---6------------------5-----|---------5---6---8----|
|----------10-8---6-5-8---6---8---|-(8)---8--------------|
|---------------------------------|----------------------|
|---------------------------------|----------------------|
|---------------------------------|----------------------|
|---------------------------------|----------------------|
|
|  E   E    E   E   E   E   E   E    E  E   E E E E E E
|---------------0---1---0---------|---------0-------0----|
|-----------3---------------3-----|-----------3-------3--|
|------2--------------------------|-----0---------0------|
|--0------------------------------|----------------------|
|-------------------------------3-|--1----------3--------|
|---------------------------------|----------------------|


  Dm                              E7
  Gtr III
                                                          ~~~~~~~
   Q.      S  S  E  S  S  +Q       +Q    S  S  E  +S   S  E  +E  E
|-10------10-12-13-12-10-(10)---|-(10)-----12-15-(15)-12-----------|
|-------------------------------|------------------------15-(15)---|
|-------------------------------|----------------------------------|
|-------------------------------|----------------------------------|
|-------------------------------|----------------------------------|
|-------------------------------|----------------------------------|
|
| Gtr II
|  E  E E  E     E  E      E  E     E  E E     E  +H
|----------0-----1--0-----------|--------------0--(0)--------------|
|-------3------------------3----|--------3-------------------------|
|-----2-----------------------2-|------3---------------------------|
|--0----------------------------|---0------------------------------|
|-------------------------------|----------------------------------|
|-------------------------------|----------------------------------|


  Dm
       |-3-| |-3-| |-3-| |-3-| |-3-| |---6---|
  s  s s S S S S S S S S S S S S S S S S S S E
|-9-10-6-5-------------------------------------|
|----------8-6-5-----------------------------5-|
|----------------7-6---------------------5-7---|
|--------------------8-7-----------5-7-8-------|
|------------------------8-7-5-7-8-------------|
|----------------------------------------------|
|
| E    E     E     E     E     E     E     E
|------------------0-----1-----0---------------|
|------------3-----------------------3---------|
|------2---------------------------------------|
|-0--------------------------------------------|
|------------------------------------------3---|
|----------------------------------------------|


                       F
  Gtr III
  E E E E  E  E E E     W
|-------------5-6---||------------------------|
|---6---8-----------||------------------------|
|-----------------7-||------------------------|
|-7---7----7--------||------------------------|
|-------------------||------------------------|
|-------------------||------------------------|
|
| Gtr IV
|                       ~~~~~~~~~~~~~~~~~~~~~
| W                     H         +Q    +Q
|-------------------||------------------------|
|-------------------||------------------------|
|-------------------||-12b14=====(12)--(12)r--|
|-------------------||------------------------|
|-------------------||------------------------|
|-------------------||------------------------|
|
| Gtr V
| H        H            W
|-------------------||------------------------|
|-------------------||--1---------------------|
|-------------------||--2---------------------|
|-------------------||--3---------------------|
|-------------------||--3---------------------|
|---------13\-------||--1---------------------|


  D/F#
   W
|------------------------------------------|
|------------------------------------------|
|------------------------------------------|
|------------------------------------------|
|------------------------------------------|
|------------------------------------------|
|
|  E  S  S S  S  S  S  S  S S  S S  S S  S
|-11-10-11-8-11----11----11---11---11------|
|---------------11----10----8----7----8-10-|
|------------------------------------------|
|------------------------------------------|
|------------------------------------------|
|------------------------------------------|
|
|  W
|------------------------------------------|
|--3---------------------------------------|
|--2---------------------------------------|
|--0---------------------------------------|
|------------------------------------------|
|--2---------------------------------------|


  Gm
  Gtr IV
                       ~~~~~~~
   +H          +E.   S E. +S
|-----------------------------|
|-(10)b11=====(10)r-10p8--(8)-|
|-----------------------------|
|-----------------------------|
|-----------------------------|
|-----------------------------|
|
| Gtr V
|   W
|-----------------------------|
|---3-------------------------|
|---3-------------------------|
|---5-------------------------|
|---5-------------------------|
|---3-------------------------|
|
|   W
|-----------------------------|
|-----------------------------|
|-----------------------------|
|-----------------------------|
|-----------------------------|
|-----------------------------|


  G#7                                                Asus4
                                                                          ~~
   |--3--|  |--3--|  |--3--|  |--3--|
   S  S  S  S  S  S  S  S  S  S  S  S  E  +Q    +E     S E  E     +S   E  H
|-------10-13----------------13-16------------------|------17b18r(17)-15-17-------|
|----12-------15----------15-------15---------------|-------x---------------------|
|-13-------------16-13-16-------------16-(16)--(16)-|--0--------------------------|
|---------------------------------------------------|-----------------------------|
|---------------------------------------------------|-----------------------------|
|---------------------------------------------------|-----------------------------|
|
|  W                                                   W
|---------------------------------------------------|-----------------------------|
|--3------------------------------------------------|-^3--------------------------|
|--4------------------------------------------------|-^2--------------------------|
|--3------------------------------------------------|-^2--------------------------|
|---------------------------------------------------|-^0--------------------------|
|--4------------------------------------------------|-----------------------------|
|
|                                                     Gtr I
|  W                                                   H                  E E E E
|---------------------------------------------------|---------------------0---0---|
|---------------------------------------------------|-^3--------------------3---2-|
|---------------------------------------------------|-^2--------------------------|
|---------------------------------------------------|-^2--------------------------|
|---------------------------------------------------|-^0--------------------------|
|---------------------------------------------------|-----------------------------|


  Asus4
  Gtr IV
    ~~~~
        |-----------------------------3-----------------------------|
   +E   S  S  S  S  S  S  S  S  S  S  S  S  S  S  S  S  S  S  S  S  S
|-(17)-18-17-15-17-15-13----15-13-12----13-12-------12----------------|
|------------------------17----------15-------15-16----15-14----15----|
|------------------------------------------------------------15----12-|
|-------------------------------------------------------------x-------|
|---------------------------------------------------------------------|
|---------------------------------------------------------------------|
|
| Gtr V
|   W
|---------------------------------------------------------------------|
|---------------------------------------------------------------------|
|---2-----------------------------------------------------------------|
|---2-----------------------------------------------------------------|
|---0-----------------------------------------------------------------|
|---------------------------------------------------------------------|
|
| Gtr I
|   H                              E        E        E        E
|----------------------------------0-----------------0----------------|
|-^-3---------------------------------------3-----------------2-------|
|-^-2-----------------------------------------------------------------|
|-^-2-----------------------------------------------------------------|
|-^-0-----------------------------------------------------------------|
|---------------------------------------------------------------------|


  A
                                                        \0.5/
   T  T  S  S  S  T  T  T  T  T  T  T  T  S   S  S  S   S.     S  S.
|---------------------------------------------------------------------|
|---------------------------------------------------------------------|
|-14h15p14-12----14-12------------------------------------------------|
|-------------15-------15-14-12-14-15p14-12--11s12-14h=15p====14-12---|
|---------------------------------------------------------------------|
|---------------------------------------------------------------------|
|
|  W
|---------------------------------------------------------------------|
|---------------------------------------------------------------------|
|--2------------------------------------------------------------------|
|--2------------------------------------------------------------------|
|--0------------------------------------------------------------------|
|---------------------------------------------------------------------|
|
|  H                                     +Q             Q
|---------------------------------------------------------------------|
|--2-------------------------------------(2)--------------------------|
|--2-------------------------------------(2)----------<12>------------|
|--2-------------------------------------(2)----------<12>------------|
|--0-------------------------------------(0)----------<12>------------|
|---------------------------------------------------------------------|

[ Tab from: http://www.guitaretab.com/y/yngwie-malmsteen/82980.html ]
                               Verse
  A                             Bm
  Gtr IV
                                      >
     ~~~~~~
     H       E  S S S S S  S    E S S Q   H
|-----------------------9s10-||-7-----------------|
|---------------------7------||-------------------|
|-------------------7--------||---7-6-------------|
|---14------14\-0-9----------||-------9-----------|
|----------------------------||-------------------|
|----------------------------||-------------------|
|
| Gtr V
|    W                          W
|----------------------------||-------------------|
|----------------------------||-------------------|
|----2-----------------------||-------------------|
|----2-----------------------||-------------------|
|----0-----------------------||-------------------|
|----------------------------||-------------------|
|
| Gtr I
|   +W                          E E   E E E E E E
|----------------------------||---------7---------|
|----------------------------||-------7-----7-----|
|-(<12>)---------------------||---7-------7---7---|
|-(<12>)---------------------||-9---------------9-|
|-(<12>)---------------------||-------------------|
|----------------------------||-------------------|


  Bm/A#             Bm7/A
  W                 W
|-----------------|-----------------|
|-----------------|-----------------|
|-----------------|-----------------|
|-----------------|-----------------|
|-----------------|-----------------|
|-----------------|-----------------|
|
| W                 W
|-----------------|-----------------|
|-----------------|-----------------|
|-----------------|-----------------|
|-----------------|-----------------|
|-----------------|-----------------|
|-----------------|-----------------|
|
| E E E E E E E E   E E E E E E E E
|-------7---------|-------7---------|
|-----7-----7-----|-----7-----7-----|
|---7-----7---7---|---7-----7---7---|
|-8-------------8-|-7-------------7-|
|-----------------|-----------------|
|-----------------|-----------------|


  G#7              Gmaj7             Bm/F#             E#7
  Gtr I
  E E E E E E E E   E E E E E E E E   E E E E E E E E   E E E E E E E E
|-------7---------|-------7-------7-|-------7-------7-|-------4-7-------|
|-----7-----7-----|-----7-------7---|-----7-------7---|-----3-----6-----|
|---7-----7---7---|---7-------7-----|---7-------7-----|---4---------7---|
|-6-------------6-|-5-------5-------|-4-------4-------|-3-------------6-|
|-----------------|-----------------|-----------------|-----------------|
|-----------------|-----------------|-----------------|-----------------|


  F#sus4    F#      Bmadd9            Bm/A#             Bm7/A
  E E E E E E E E   E E E E  Q  E E   E E E E E E E E   E E E E E E E E
|-------2---------|-------9-10--9-7-|-------7---------|-------7---------|
|-----2---2-----2-|-----7-----------|-----7-----7-----|-----7-----7-----|
|---4-------3-----|---7-------------|---7-----7---7---|---7-----7---7---|
|-4-----------4---|-9---------------|-8-------------8-|-7-------------7-|
|-----------------|-----------------|-----------------|-----------------|
|-----------------|-----------------|-----------------|-----------------|


  G#7              Gmaj7
  E E E E E E E E   E E E E E E E E
|-------7---------|-------7-------7-|
|-----7-----7-----|-----7-------7---|
|---7-----7---7---|---7-------7-----|
|-6-------------6-|-5-------5-------|
|-----------------|-----------------|
|-----------------|-----------------|


  Bm/F#             E#7              F#sus4
  E E E E E E E E   E E E E E E E E   E E E E E E Q
|-------7-------7-|-------4-------7-|-------2--------|
|-----7-------7---|-----3-------6---|-----2-----2----|
|---7-------7-----|---4-------7-----|---4-----4---4--|
|-4-------4-------|-3-------6-------|-4--------------|
|-----------------|-----------------|----------------|
|-----------------|-----------------|----------------|


                               Guitar Solo 2
  F#                            Em
  Gtr I
   H    E E Q                    W
|-!2-------------------------||--------------------|
|-!2-------------------------||--------------------|
|-!3----3-4-3----------------||--------------------|
|-!4-------------------------||--------------------|
|----------------------------||--------------------|
|----------------------------||--------------------|
|
| Gtr IV
|                                ~~~~~~~~~~~~~
|  W                             Q       +H.
|----------------------------||--------------------|
|----------------------------||-15b17===(15)r------|
|----------------------------||--------------------|
|----------------------------||--------------------|
|----------------------------||--------------------|
|----------------------------||--------------------|
|
| Gtr V
|  H    Q   T T T T T T T T      W
|----------------------------||--------------------|
|-----------8p7--------------||--8-----------------|
|---------------9p7p6--------||--9-----------------|
|---------------------8p7p5\-||--9-----------------|
|----------------------------||--7-----------------|
|----------------------------||--------------------|


   W
|-------------------------------------------------------|
|-------------------------------------------------------|
|-------------------------------------------------------|
|-------------------------------------------------------|
|-------------------------------------------------------|
|-------------------------------------------------------|
|
|  |--3--|                 |------------5-------------|
|  E  E  E  S  S     S  S  S  S  S  S  S  S  S  S  S  S
|-12-12----------------12-------------------------------|
|-------15-12-------12----15p12-------------------------|
|-------------14b16-------------15-14p12----14p12-------|
|----------------------------------------14-------14-12-|
|-------------------------------------------------------|
|-------------------------------------------------------|
|
|  W
|-------------------------------------------------------|
|--8----------------------------------------------------|
|--9----------------------------------------------------|
|--9----------------------------------------------------|
|--7----------------------------------------------------|
|-------------------------------------------------------|


  C     G/B                  Am             G6   D/F#
  Gtr IV
                                    |--3--|
   H     T  E..  +E.  T  T    Q.    S  S  S E  E  E  E
|--------------------------|---------------------------|
|--------------------------|---------------------------|
|--------------------------|------------------------12-|
|-14----14p12---(12)-16p12s|=10----10h12p10-9-10-12----|
|--------------------------|---------------------------|
|--------------------------|---------------------------|
|
| Gtr V
|  H     H                    H             Q     Q
|--------3-----------------|---------------------------|
|--5-----3-----------------|--1-------------5-----3----|
|--5-----0-----------------|--2-------------4-----2----|
|--5-----------------------|--2-------------5-----0----|
|--3-----2-----------------|--0------------------------|
|--------------------------|----------------3-----2----|


  Em
          \0.5____/
                      ~~                      ~~~~~~
                          |--3--|                       |------6-------|
   Q.    +E      +E   Q   S  S  S    H        E.     S  S  S  S  S  S  S
|------------------------------12-|-14b15----14pb15-12-15-12-14-15-17-14-|
|---------------------------12----|--------------------------------------|
|-12----(12)----(12)-12--12-------|--------------------------------------|
|---------------------------------|--------------------------------------|
|---------------------------------|--------------------------------------|
|---------------------------------|--------------------------------------|
|
|  W                                 W
|--0------------------------------|--0-----------------------------------|
|--0------------------------------|--0-----------------------------------|
|--0------------------------------|--0-----------------------------------|
|--2------------------------------|--2-----------------------------------|
|--2------------------------------|--2-----------------------------------|
|--0------------------------------|--0-----------------------------------|


  C                                                G/B
  Gtr IV
                                                    ~~~~~~~~~
   |------6-------|  |--3--|
   S  S  S  S  S  S  S  S  S  S       E        +S   E.  +E.
|-15-17-19-17-19-20-17-19-20-21pb22==21b24====(21)r21--(21)r-|
|------------------------------------------------------------|
|------------------------------------------------------------|
|------------------------------------------------------------|
|------------------------------------------------------------|
|------------------------------------------------------------|
|
| Gtr V
|  H                                        H
|-------------------------------------------3----------------|
|--5----------------------------------------3----------------|
|--5----------------------------------------0----------------|
|--5---------------------------------------------------------|
|--3----------------------------------------2----------------|
|------------------------------------------------------------|


  Am                        G6             D/F#
               |--3--|
   S  S  S  S  S  S  S  S S  T  T  T  T  E T T T  T S S
|-19h20p19p17h19p17----17---19h20p19p17----7h8p7--------|
|-------------------20----x-------------19-------10p8p7-|
|-------------------------------------------------------|
|-------------------------------------------------------|
|-------------------------------------------------------|
|-------------------------------------------------------|
|
|  H                         Q             Q
|-------------------------------------------------------|
|--1-------------------------5-------------3------------|
|--2-------------------------4-------------2------------|
|--2-------------------------5-------------0------------|
|--0----------------------------------------------------|
|----------------------------3-------------2------------|


  Em
       T    T    T         ~~~~~~~~~
                     |-3-|                 |-3--| |---5----|  |-3--| |-3-|
  E S  S S  S S  S E S S S Q    +E  S S  S S S  S S S  S S S  S S  S S S S S
|---8-12-7-12-5-12------------|------------8p7----8p7------7-----------------|
|------------------8-7h8p7----|-----7-8-10-----10-----10p8---10p8-10p8p7-8p7-|
|-9------------------------9--|-(9)------------------------------------------|
|-----------------------------|----------------------------------------------|
|-----------------------------|----------------------------------------------|
|-----------------------------|----------------------------------------------|
|
| W                              W
|-0---------------------------|--0-------------------------------------------|
|-0---------------------------|--0-------------------------------------------|
|-0---------------------------|--0-------------------------------------------|
|-2---------------------------|--2-------------------------------------------|
|-2---------------------------|--2-------------------------------------------|
|-0---------------------------|--0-------------------------------------------|


  C                  G/B
        |-3--|
  S S S S S  S S S s  S S  S  S  S  S  E
|--------------7-8-7-10-8-12-10-14-12-14pb15r|
|-----7-8-7-10-------------------------------|
|-8-9----------------------------------------|
|--------------------------------------------|
|--------------------------------------------|
|--------------------------------------------|
|
| H                   H
|---------------------3----------------------|
|-5-------------------3----------------------|
|-5-------------------0----------------------|
|-5------------------------------------------|
|-3-------------------2----------------------|
|--------------------------------------------|


  Am                 G6     D/F#
   +Q    E      +E..    E..    S  E
|-(14)--14pb15r(14)-----------------|
|----------------------15-----13p12-|
|-----------------------------------|
|-----------------------------------|
|-----------------------------------|
|-----------------------------------|
|
|   H                Q      Q
|-----------------------------------|
|---1----------------5------3-------|
|---2----------------4------2-------|
|---2----------------5------0-------|
|---0-------------------------------|
|--------------------3------2-------|


  Em
                                     |-----5-----|
   E  Q       +E   +E       +S    S  S  S  S  S  S
|--------------------------------12----------------|
|-12--------------------------------15p12----------|
|----14b16===(14)r(14)b16==(14)r----------14-12----|
|-----------------------------------------------14-|
|--------------------------------------------------|
|--------------------------------------------------|
|
|  W
|--0-----------------------------------------------|
|--0-----------------------------------------------|
|--0-----------------------------------------------|
|--2-----------------------------------------------|
|--2-----------------------------------------------|
|--0-----------------------------------------------|


         ~~~~
   |--3--|          |--3--|  |------6-------|  |--3--|
   S  S  S..  +E    S  S  S  S  S  S  S  S  S  S  S  S E..
|---------------------------------------------17-19--------|
|------------------------------------17-19-20-------20-----|
|-14p12---------------------16-17-19-----------------------|
|-------14---(14)/-16-17-19--------------------------------|
|----------------------------------------------------------|
|----------------------------------------------------------|
|
|  W
|--0-------------------------------------------------------|
|--0-------------------------------------------------------|
|--0-------------------------------------------------------|
|--2-------------------------------------------------------|
|--2-------------------------------------------------------|
|--0-------------------------------------------------------|


  C                                   G/B
                                                        ~~~~
   |-----------------3-----------------|  |--3--|
   S  S  S  S  S  S  S  S  S  S  S  S  S  S  S  S.  E  +E.
|-14-15-14-------14----------------------------------------|
|----------17-15----17-15-13-17-15-13-12-15-13-12----------|
|--------------------------------------------------14-(14)-|
|----------------------------------------------------------|
|----------------------------------------------------------|
|----------------------------------------------------------|
|
|  H                                   H
|--------------------------------------3-------------------|
|--5-----------------------------------3-------------------|
|--5-----------------------------------0-------------------|
|--5-------------------------------------------------------|
|--3-----------------------------------2-------------------|
|----------------------------------------------------------|


  Am                G6    D/F#
   +S   S  S  S  Q   S  E. S  E  +S
|-------------------------------------|
|---------19-19s17--19-19S15-15-(15)s=|
|-(14)--------------------------------|
|------16----16s14--16-16S12-12-(12)s=|
|-------------------------------------|
|-------------------------------------|
|
|   H                Q     Q
|-------------------------------------|
|---1----------------5-----3----------|
|---2----------------4-----2----------|
|---2----------------5-----0----------|
|---0---------------------------------|
|--------------------3-----2----------|


  Em
        |-3-|         |-3-|
   Q.   S S S S S S S T T T T T T T T T   S S T T T T T T T T T T T T H
|---------------------------------------|----------------------------------|
|-12------------------------------------|----------------------------------|
|-------9-8-7s4---4---------------4h5h7-|-5p4p2h4p2------------------------|
|--9------------7---7p5p4---4h5h7-------|-----------5p4p2------------------|
|-------------------------7-------------|-----------------5p3p2------------|
|---------------------------------------|-----------------------5p3p2p0----|
|
|  W                                      W
|--0------------------------------------|-0--------------------------------|
|--0------------------------------------|-0--------------------------------|
|--0------------------------------------|-0--------------------------------|
|--2------------------------------------|-2--------------------------------|
|--2------------------------------------|-2--------------------------------|
|--0------------------------------------|-0--------------------------------|


  C                 G/B     Am                         G6         D/F#
                     ~~
                                                          |--3--|        |--3--|
   Q       +E   +E   H       S  S  S  S  +E.      +E.     S  S  S  S  S  S  S  S
|-------------------------|----15------------------------------------------------|
|-15b17===(15)-(15)r15----|-13----13---------------------------------------------|
|-------------------------|----------16-(16)b17==(16)r---16-14----16p14-16p14----|
|-------------------------|------------------------------------17-------------17-|
|-------------------------|------------------------------------------------------|
|-------------------------|------------------------------------------------------|
|
|  H                 H       H                         Q           Q
|--------------------3----|------------------------------------------------------|
|--5-----------------3----|--1-------------------------5-----------3-------------|
|--5-----------------0----|--2-------------------------4-----------2-------------|
|--5----------------------|--2-------------------------5-----------0-------------|
|--3-----------------2----|--0---------------------------------------------------|
|-------------------------|----------------------------3-----------2-------------|


  Em
   |------6-------|  |------6-------|  |------6-------|  |--3--|
   S  S  S  S  S  S  S  S  S  S  S  S  S  S  S  S  S  S  S  S  S  S  S
|------------------------------------------------------------------------|
|------------------------------------------------------------------------|
|-14---------------------------------------------------------------------|
|----17p16-17p16-14-16p14----16-14----------------------------------14---|
|-------------------------17-------17-17p15p14-17-15p14----14h15-17------|
|-------------------------------------------------------17---------------|
|
|  W
|--0---------------------------------------------------------------------|
|--0---------------------------------------------------------------------|
|--0---------------------------------------------------------------------|
|--2---------------------------------------------------------------------|
|--2---------------------------------------------------------------------|
|--0---------------------------------------------------------------------|


  Em
         |--3--|  |--3--|
   +Q    E  E  E  E  E  E  S  S  S  S
|----------------------------17-19-20-|
|----------------------19h20----------|
|-------------17-19-21----------------|
|-(14)--19-21-------------------------|
|-------------------------------------|
|-------------------------------------|
|
|   W
|---0---------------------------------|
|---0---------------------------------|
|---0---------------------------------|
|---2---------------------------------|
|---2---------------------------------|
|---0---------------------------------|


  C             G/B               Am       G6  D/F#
                  ~~~~~~~~PM--|    ~~~~~
   Q       +Q    +Q       S S E    H        Q   Q
|-21b24===(21)r=(21)pb22--------|-19b20----19--17--|
|-------------------------------|------------------|
|-------------------------------|------------------|
|-------------------------x-----|------------------|
|-----------------------------x-|------------------|
|---------------------------x---|------------------|
|
|  H              H                H        Q   Q
|-----------------3-------------|------------------|
|--5--------------3-------------|--1--------5---3--|
|--5--------------0-------------|--2--------4---2--|
|--5----------------------------|--2--------5---0--|
|--3--------------2-------------|--0---------------|
|-------------------------------|-----------3---2--|


  Em
   \0.5/
           ~~
   Q       H     E  E
|-19------17----------|
|---------------20p19h|
|---------------------|
|---------------------|
|---------------------|
|---------------------|
|
|  W
|--0------------------|
|--0------------------|
|--0------------------|
|--2------------------|
|--2------------------|
|--0------------------|


   ~~~
                           |--3--|       |-------9-------|
   Q.    S  S  T  T  T  T  T  T  T  T  T S S S S S S S S S
|-------17----------------19h20p19-17p14-7h8p7p5-------------|
|-20-------20-19-17-19h20------------------------8p7p5s4-----|
|--------------------------------------------------------5p==|
|------------------------------------------------------------|
|------------------------------------------------------------|
|------------------------------------------------------------|
|
| +W
|-(0)--------------------------------------------------------|
|-(0)--------------------------------------------------------|
|-(0)--------------------------------------------------------|
|-(2)--------------------------------------------------------|
|-(2)--------------------------------------------------------|
|-(0)--------------------------------------------------------|


            \0.5/    \0.5/
                                                      |-3-|
   S  T T E Q.       Q      E    S  Q.   +Q      +E.. T T T T
|-----------------------------|--x--7----(7)-----(7)--8p7p5---|
|-----4h5h7-8-------10--------|-----------------------------8p|
|--4--------------------------|-------------------------------|
|-----------------------------|-------------------------------|
|-----------------------------|-------------------------------|
|-----------------------------|-------------------------------|
|
|                                             >
|  ~~~~~~~~~~~~~~~~~~~~~~~~~~~~~~~~~~~~~~~~~~~~~~~~~~~~~~~~~~~~
| +W                            +H           +H
|-(0)-------------------------|-(0)----------(0)--------------|
|-(0)-------------------------|-(0)----------(0)--------------|
|-(0)-------------------------|-(0)----------(0)--------------|
|-(2)-------------------------|-(2)----------(2)--------------|
|-(2)-------------------------|-(2)----------(2)--------------|
|-(0)-------------------------|-(0)----------(0)--------------|


   T  T T T T T T T T T T T T T T T H
|----------------------------------------|
|--7p=5----------------------------------|
|-------8p7p5s4--------------------------|
|---------------7p5p4--------------------|
|---------------------7p5p3s2------------|
|-----------------------------5p3p2-0----|
|
|~~~~~
| +W
|-(0)------------------------------------|
|-(0)------------------------------------|
|-(0)------------------------------------|
|-(2)------------------------------------|
|-(2)------------------------------------|
|-(0)------------------------------------|


                Em
                 >
                 ~~~
  +W            +W
|------------||-------------------|
|------------||-------------------|
|------------||-------------------|
|------------||-------------------|
|------------||-------------------|
|-(0)--------||-(0)---------------|
|
| Gtr I
|  W             W
|------------||-------------------|
|------------||-------------------|
|------------||-------------------|
|------------||-------------------|
|------------||-------------------|
|------------||-------------------|
|
| Gtr II
|  W             E  E E E E E E E
|------------||---------2-3-2-----|
|------------||-------5-------5---|
|------------||-----4-----------4-|
|------------||--2----------------|
|------------||-------------------|
|------------||-------------------|


  Cb5/E              Em
  W                  W
|------------------|--------------------------|
|------------------|--------------------------|
|------------------|--------------------------|
|------------------|--------------------------|
|------------------|--------------------------|
|------------------|--------------------------|
|
|                                     ~
|                    |--3---| |--3--|
| H        Q   E E   E  E   E E E   E H
|----------------8-|-7--------7---------------|
|------------------|---10---8---8---7---------|
|------------------|------------------9-------|
|------------------|--------------------------|
|------------------|--------------------------|
|------------------|--------------------------|
|
| E E E E +H         E    E   E   E   E E E E
|-------2-(2)------|--------------2---3-2-----|
|-----5------------|----------5-----------5---|
|---5--------------|------4-------------------|
|-2----------------|-2------------------------|
|------------------|------------------------5-|
|------------------|--------------------------|


  Dsus2/C                 Em                Cb5/E            Em
  Gtr I
                          >
                          ~
  +Q    Q   E S S E S S   W                 W                W
|-----------------------|-----------------|----------------|-------------------|
|-----------------------|-----------------|----------------|-------------------|
|-(9)-------------------|-----------------|----------------|-------------------|
|-------------4-5-7-5-4-|-----------------|----------------|-------------------|
|-----------------------|-7---------------|----------------|-------------------|
|-----------------------|-----------------|----------------|-------------------|
|
| Gtr II
|  E  E E E E E   E E     E E E E E E E E   E E E E +H       E E E E E E E E
|-------2---------2-----|-------2-3-2-----|-------2-(2)----|-------2-3-2-------|
|---------5---------5---|-----5-------5---|-----5----------|-----5-------5-----|
|-----2-------2---------|---4-----------4-|---5------------|---4---------------|
|-----------------------|-2---------------|-2--------------|-2-----------------|
|--3--------5-----------|-----------------|----------------|---------------5---|
|-----------------------|-----------------|----------------|-------------------|


  Dsus2/C                Em
  H       E   E   Q      E   E    H         Q
|-----------<12>-------|--------<12>-------------|
|----------------<5>---|---<12>------------------|
|----------------------|-0-----------------<7>---|
|----------------------|-------------------------|
|----------------------|-------------------------|
|----------------------|-------------------------|
|
| E E E E E   E   E  E   E   E    E  E E E  E  E
|-----2-----------2----|-------------2-3-2-------|
|-------5------------5-|----------5---------5----|
|---2---------2--------|-----4-----------------4-|
|----------------------|-2-----------------------|
|-3-------5------------|-------------------------|
|----------------------|-------------------------|


  Cb5/E
               |---3---|  |----3----|       |--3--|
   +E..   E    S    S  S. S      S  S  E..  S.  S S.
|----------------------------------10h12--------------|
|---------------------10h12h====13--------------------|
|-(<7>)---9---11h==12----------------------12--11-9---|
|-----------------------------------------------------|
|-----------------------------------------------------|
|-----------------------------------------------------|
|
|   E   E   E    E          +H
|----------------2----------(2)-----------------------|
|-----------5-----------------------------------------|
|-------5---------------------------------------------|
|---2-------------------------------------------------|
|-----------------------------------------------------|
|-----------------------------------------------------|


  Em                  Dsus2/C
  +Q    H       Q     W
|-------------------|-----------------|
|-------------------|-----------------|
|-(9)---------------|-----------------|
|-------------------|-----------------|
|-------------------|-----------------|
|-------------------|-----------------|
|
|  E  E E E E E E E   E E E E E E E E
|---------2-3-2-----|-----2-------2---|
|-------5-------5---|-------5-------5-|
|-----4-------------|---2-------2-----|
|--2----------------|-----------------|
|-----------------5-|-3-------5-------|
|-------------------|-----------------|


  Em                             Cb5/E
   E    E    H          +Q       W
|----------<12>-------(<12>)---|----------------|
|-----<12>---------------------|----------------|
|------------------------------|----------------|
|-<7>--------------------------|----------------|
|------------------------------|----------------|
|------------------------------|----------------|
|
|  E    E    E  E E E    E   E   E E E E +H
|---------------2-3-2----------|-------2-(2)----|
|------------5-----------5-----|-----5----------|
|-------4--------------------4-|---5------------|
|--2---------------------------|-2--------------|
|------------------------------|----------------|
|------------------------------|----------------|


  Em                Dsus2/C           Em                Cb5/E
  Gtr II
  E E E E E E E E   E E E E E E E E   E E E E E E E E   E E E E +H
|-------2-3-2-----|-----2-------2---|-------2-3-2-----|-------2-(2)----*|
|-----5-------5---|-------5-------5-|-----5-------5---|-----5----------*|
|---4-------------|---2-------2-----|---4-----------4-|---5------------*|
|-2---------------|-----------------|-2---------------|-2--------------*|
|---------------5-|-3-------5-------|-----------------|----------------*|
|-----------------|-----------------|-----------------|----------------*|



Duration Legend
---------------
W - whole; H - half; Q - quarter; E - 8th; S - 16th; T - 32nd; X - 64th; a - acciaccatura
+ - note tied to previous; . - note dotted; .. - note double dotted
Uncapitalized letters represent notes that are staccato (1/2 duration)
Irregular groupings are notated above the duration line
Duration letters will always appear directly above the note/fret number it represents the
duration for.  Duration letters with no fret number below them represent rests.  Multi-
bar rests are notated in the form Wxn, where n is the number of bars to rest for.  Low
melody durations appear below the staff

Tablature Legend
----------------
 h   - hammer-on
 p   - pull-off
 b   - bend
 pb  - pre-bend
 r   - bend release (if no number after the r, then release immediately)
 /\  - slide into or out of (from/to "nowhere")
 s   - legato slide
 S   - shift slide
 - natural harmonic
[n]  - artificial harmonic
n(n) - tapped harmonic
 ~   - vibrato
 tr  - trill
 T   - tap
 TP  - trem. picking
 PM  - palm muting
\n/  - tremolo bar dip; n = amount to dip
 \n  - tremolo bar down
 n/  - tremolo bar up
/n\  - tremolo bar inverted dip
 =   - hold bend; also acts as connecting device for hammers/pulls
 <> - volume swell (louder/softer)
 x   - on rhythm slash represents muted slash
 o   - on rhythm slash represents single note slash

Misc Legend
-----------
 |  - bar
||  - double bar
||o - repeat start
o|| - repeat end
*|  - double bar (ending)
 :  - bar (freetime)
 $  - Segno
 &  - Coda
Tempo markers -  = BPM(8/16=s8/s16), where s8 = swing 8ths, s16 = swing 16ths

Related for Dreaming Tell Me tab