Guitaretab - guitar tabs
Song name
# A B C D E F G H I J K L M N O P Q R S T U V W X Y Z

Yngwie Malmsteen - Icarus Dream Opus 4 tab

     Icarus'dream suite opus 4 tab by yngwie malmsteen


               traduit en tablature par steve morin
               
               classical guitar
[ Tab from: http://www.guitaretab.com/y/yngwie-malmsteen/89831.html ]
|       |       |       |        |       |       |       |        
|--------3---2-------------------|--------2---0-----------2h3h0---|
|------5-------------3-----------|------3-----------1---0---------|
|----4-----4-----------------2---|----2-----0---------0-----------|
|--------------------------------|--------------------------------|
|--------------------------------|--------------------------------|
|0-------------------------------|0-------------------------------|
 
 |       |       |       |        |       |       |       |        
|--------3---2-------------------|--------2---0-----------2h3h0---|
|------5-------------3-----------|------3-----------1---0---------|
|----4-----4-----------------2---|----2-----0---------0-----------|
|--------------------------------|--------------------------------|
|--------------------------------|--------------------------------|
|0-------------------------------|0-------------------------------|
 
 |       |       |       |        |       |       |       |        
|--------3---2-------------------|--------2---0-----------2h3h0---|
|------5-------------3-----------|------3-----------1---0---------|
|----4-----4-----------------2---|----2-----0---------0-----------|
|--------------------------------|--------------------------------|
|--------------------------------|--------------------------------|
|0-------------------------------|0-------------------------------|
 
 |       |       |       |        |       |       |       |        
|--------3---2-------------------|--------2---0-----------2h3h0---|
|------5-------------3-----------|------3-----------1---0---------|
|----4-----4-----------------2---|----2-----0---------0-----------|
|--------------------------------|--------------------------------|
|--------------------------------|--------------------------------|
|0-------------------------------|0-------------------------------|
 
 |       |       |       |        |       |       |       |        
|--------------------------------|--------5h4-------------0-------|
|--------4---------------4-------|----5-------5-------0-------0---|
|----4-----4---------4-----4-----|--4---4-------4---1---1---1---1-|
|--4---4-----4-----4---------4---|--------------------------------|
|2-------------2-0-----0-------0-|--------------------------------|
|--------------------------------|4---------------0---------------|
 
 |       |       |       |        |       |       |       |        
|----------0---------------0-----|--------2h2-2-------------------|
|------0h1---1---------0h1---1---|--------------3-----7----------|
|----2---------2-----2---------2-|----2-------------7--7--7----|
|--2---------------2-------------|--0---0---------0-------7------|
|0-------------------------------|----------------------------5-7-|
|----------------3---------------|2-------------------------------|
 
 |       |       |       |        |       |       |       |        
|--------5-----------------5-----|----0-------0---------1-------1-|
|----6-----6---6-------5h6---6---|------2-------2-----3-------3---|
|--5---5-----5-------7---------7-|------------------2-------2-----|
|------------------7-------------|--2-------2-----0---------------|
|8---------------5---------------|0-------4---------------3-------|
|--------------------------------|--------------------------------|
 
 |       |       |       |        |       |       |       |        
|----------------------5h4-------|----5-------5-------7-------7---|
|--------3-----------5-----5---5-|--5---5---5-------7---7---7---7-|
|----3-----3-------4---------4---|7-------6-----6-9-------8-------|
|--3---3-----3-------------------|--------------------------------|
|1-------------0-----------------|--------------------------------|
|----------------4---------------|--------------------------------|
 
 |       |       |       |        |       |       |       |        
|--------3---2-------------------|--------2---0-----------2h3h0---|
|------5-------------3-----------|------3-----------1---0---------|
|----4-----4-----------------2---|----2-----0---------0-----------|
|--------------------------------|--------------------------------|
|--------------------------------|--------------------------------|
|0-------------------------------|0-------------------------------|
 
 |       |       |       |        |       |       |       |        
|--------3---2-------------------|--------2---0-----------2h3h0---|
|------5-------------3-----------|------3-----------1---0---------|
|----4-----4-----------------2---|----2-----0---------0-----------|
|--------------------------------|--------------------------------|
|--------------------------------|--------------------------------|
|0-------------------------------|0-------------------------------|
 

pompom020366@hotmail.com
Related for Icarus Dream Opus 4 tab